:: Guitar & Bass Tabs Make Home Page
A B C D E F G H I J K L M N O P Q R S T U V W X Y Z #

  for    

On TABSPACE
Info About This Tab
Artist: Sani-t
Tab Type: Guitar
Rate This Tab!
Sani-T? | lost concious (dark song).
Tabbed by name,email.
  
FREAK_999@hotmail.com  Freak, Matt, and Mark at hurley_usa@hotmail.com 
Title: lost conscious
Artist: SANI-T?

d= distortion

D[-----3---3---------2-----2---------3---3---------2-----2-------]
A[---5---5---5-----4---4-----4-----5---5---5-----4---4-----4-----]
E[-5-----------5-4-------4-----4-5-----------5-4-------4-----4---]

D[-----3---3---------2-----2---------3---3---------2-----2-------]
A[---5---5---5-----4---4-----4-----5---5---5-----4---4-----4-----]
E[-5-----------5-4-------4-----4-5-----------5-4-------4-----4---]
My mind is slipping ,       away from the noose,  into      a     d-e-e-p         d-a-r-k      p-i-t  

D[-----3---3---------2-----2---------3---3---------2-----2-------]
A[---5---5---5-----4---4-----4-----5---5---5-----4---4-----4-----]
E[-5-----------5-4-------4-----4-5-----------5-4-------4-----4---]
 Ev-er-y night it gets,          harder to dream,      all of these nightmares,  sick people who scream 

D[-----3---3---------2-----2---------3---3---------2-----2-------]
A[---5---5---5-----4---4-----4-----5---5---5-----4---4-----4-----]
E[-5-----------5-4-------4-----4-5-----------5-4-------4-----4---]
Right now I feel so hollow, watch me swallow all these splinters, sticking into my spine, it’s time
 
           (d )            (d )            (d )            (d )            (d )       
D[-3-3-----3---2-2-----2-------2-----2-----3-----4-----5-----5-5-5~~8-4
A[-5---5-----5-4---4-----4---4-----4-----5-----6-----7-----7---7-7~10-6
E[-5-----5-----4-----4-----4-----4-----5-----6-----7-----7-----7-7~10-6

D[-5-5~~8—-8--8--8-4-4--5---]
A[-7-7~10-10-10-10-6-6--7---](chorus) x5
E[-7-7~10-10-10-10-6-6--7---]
       I am that voice in your head = 1
       I will be there when your dead = 2
       Holding your passage  in hand = 3
       Telling you the secrets of life = 4
      Looks like your ticket is up = 5

D[-5-----5----4-----4----3-----3-----2-----2-----]
A[---7-----7----6-----6----5-----5-----4-----4---]
E[-----7----------6----------5-----4-----4-------]

        (no distortion) (no distortion) (no distortion)
D[-----3---3---------2-----2---------3---3---------2-----2-------]
A[---5---5---5-----4---4-----4-----5---5---5-----4---4-----4-----]
E[-5-----------5-4-------4-----4-5-----------5-4-------4-----4---]


D[-----3---3---------2-----2---------3---3---------2-----2-------]
A[---5---5---5-----4---4-----4-----5---5---5-----4---4-----4-----]
E[-5-----------5-4-------4-----4-5-----------5-4-------4-----4---]
They call us mindless dreamers, with no sense of direction, where did we come from what did, we look like before this.



D[-----3---3---------2-----2---------3---3---------2-----2-------]
A[---5---5---5-----4---4-----4-----5---5---5-----4---4-----4-----]
E[-5-----------5-4-------4-----4-5-----------5-4-------4-----4---]
 Yesterday’s tomorrow and, today is the past, were we the first ones or, were we the last. 


D[-----3---3---------2-----2---------3---3---------2-----2-------]
A[---5---5---5-----4---4-----4-----5---5---5-----4---4-----4-----]
E[-5-----------5-4-------4-----4-5-----------5-4-------4-----4---]
Every moment of every, day is a time to cherish, who knows how long until these, mem-or-ies perish, away 

        (d )            (d )            (d )            (d )            (d )    
D[-1---------2-----3-----4-----5--5--5-4--4-3--3-2--]
A[---3-----4-----5-----6-----7----5--5-6--6-5--5-4--]
E[-----3-4-----5-----6-----7------7--7-6--6-5--5-4--]

D[-5-5-5-5--4-4-4-4--3-3-3-3--2-2-2-2---]
A[-7-7-7-7--6-6-6-6--5-5-5-5--4-4-4-4---] x5
E[-7-7-7-7--6-6-6-6--5-5-5-5--4-4-4-4---]

D[-5-5-5-5-4-4-4-4-3-3-3-3-2-2-2-2-2-2---2-2—2---]
A[-7-7-7-7-6-6-6-6-5-5-5-5-4-4-4-4-4-4---4-4—4---]
E[-7-7-7-7-6-6-6-6-5-5-5-5-4-4-4-4-4-4---4-4—4---]

        (end)           (end)           (end)           (end)
 
:: Ultimate Guitar Archive :: 
http://www.ultimate-guitar.com 




Share "Lost Concious" by Sani-t


TOP 10 TABS

FRESH NEW TABS

ALL ARTISTS
artist wiki

mp3bear.com
song lyrics / contact us / privacy policy / tabspace toolbar
Copyright © 2004 - 2014 TabSpace.com - All Rights Reserved.
song: lost concious guitar tabs by sani-t

0.033