:: Guitar & Bass Tabs Make Home Page
A B C D E F G H I J K L M N O P Q R S T U V W X Y Z #

  for    

On TABSPACE
Info About This Tab
Artist: Tokio Hotel
Tab Type: Guitar
Difficulty: novice
Rate This Tab!
Love Is Dead by Tokio Hotel
Tab by C-Licious


Go into STANDARD TUNING

E
B
G
D
A
E 


First Verse
E|------------------------------------|
B|------------------------------------|
G|------------------------------------|
D|------------------------------------|   x2
A|-6----6----6---7----7----7----------|
E|-4-44-4-44-4-4-4-44-4-44-4-4--------|

E|------------------------------------|
B|------------------------------------|
G|------------------------------------|
D|------------------------------------|    
A|-4----4----4---2----2----2----------|
E|-2-22-2-22-2-2-0-00-0-00-0-0--------|


Verse (With every…)
E|----------------------------------------------|
B|----------------------------------------------|
G|----------------------------------------------|
D|---998--998--998--998--998--998---------------|    
A|-6~---7~---6~---7~---6~---7~----4-(10x)-------|
E|--------------------------------2-------------|



Chorus
E|--------------------------------|
B|--------------------------------|
G|--------------------------------|
D|--------6(8x)-------------------|   x2    
A|-6-6666-4-----9(8x)-888-9-8-6---|
E|-4-4444-------7-----666-7-6-4---|

E|--------------------------------|
B|--------------------------------|
G|--------------------------------|
D|--------------------------------|      
A|-6-6666-2(8x)-9(8x)-888-9-8-6---|
E|-4-4444-0-----7-----666-7-6-4---|

E|--------------------------------|
B|--------------------------------|
G|--------------------------------|
D|--------------------------------|      
A|-6-6666-2(8x)-9(8x)-888-9-8-2~--|
E|-4-4444-0-----7-----666-7-6-0~--|

Verse 2
E|------------------------------------|
B|------------------------------------|
G|------------------------------------|
D|---998-------998-------998----------|   
A|-6~---7~~~-6~---7~~~-6~---7~~~------|
E|------------------------------------|

E|---------------------------------------|
B|---------------------------------------|
G|---------------------------------------|
D|---998--998--998--998--998--998--------|    
A|-6~---7~---6~---7~---6~---7~----4(10x)-|
E|--------------------------------2------|


Chorus
E|--------------------------------|
B|--------------------------------|
G|--------------------------------|
D|--------6(8x)-------------------|   x2    
A|-6-6666-4-----9(8x)-888-9-8-6---|
E|-4-4444-------7-----666-7-6-4---|

E|--------------------------------|
B|--------------------------------|
G|--------------------------------|
D|--------------------------------|      
A|-6-6666-2(8x)-9(8x)-888-9-8-6---|
E|-4-4444-0-----7-----666-7-6-4---|

E|-------------------------------|
B|-------------------------------|
G|-------------------------------|
D|-------------------------------|      
A|-6-6666-2(8x)-9(8x)-888-9-8----|
E|-4-4444-0-----7-----666-7-6----|


Bridge
E|----------------------------|
B|----------------------------|
G|----------------------------|
D|---------------6(x8)-5(x8)--|    
A|-2(x16)-6(x16)--------------|
E|-0------4-------------------|





E|---------------------|
B|-------------7~------|
G|---------------------|
D|--898~-898~~~--8~6~~~|
A|-6----6--------------|
E|---------------------|

E|------------------------------------|
B|------------------------------------|
G|------------------------------------|
D|------------------------------------|   x2
A|-6----6----6---7----7----7----------|
E|-4-44-4-44-4-4-4-44-4-44-4-4--------|

E|------------------------------------|
B|------------------------------------|
G|------------------------------------|
D|------------------------------------|    
A|-4----4----4---2----2----2----------|
E|-2-22-2-22-2-2-0-00-0-00-0-0--------|


E|------------------------------44444-|
B|------------------------------------|
G|------------------------------------|
D|------------------------------------|    
A|-4----4----4---444-22-44-6666-------|
E|-2-22-2-22-2-2-222-00-22-4444-------|


  Chorus
E|--------------------------|
B|--------------------------|
G|--------------------------|
D|--6(8x)-------------------|     
A|--4-----9(8x)-888-9-8-6---|
E|--------7-----666-7-6-4---|

E|--------------------------------|
B|--------------------------------|
G|--------------------------------|
D|--------6(8x)-------------------|   
A|-6-6666-4-----9(8x)-888-9-8-6---|
E|-4-4444-------7-----666-7-6-4---|

E|--------------------------------|
B|--------------------------------|
G|--------------------------------|
D|--------------------------------|      
A|-6-6666-2(8x)-9(8x)-888-9-8-6---|
E|-4-4444-0-----7-----666-7-6-4---|


E|-------------------------------|
B|-------------------------------|
G|-------------------------------|
D|-------------------------------|      
A|-6-6666-2(8x)-9(8x)-888-9-8----|
E|-4-4444-0-----7-----666-7-6----|


E|-------------------------------|
B|-------------------------------|
G|-------------------------------|
D|---------------6(x8)-5(x8)-6~~-|    
A|-2(x16)-6(x16)-----------------|
E|-0------4----------------------|



Tab created by C-Licious



Share "Love Is Dead" by Tokio Hotel


TOP 10 TABS

FRESH NEW TABS

ALL ARTISTS
artist wiki

mp3bear.com
song lyrics / contact us / privacy policy / tabspace toolbar
Copyright © 2004 - 2014 TabSpace.com - All Rights Reserved.
song: love is dead guitar tabs by tokio hotel

0.012