:: Guitar & Bass Tabs Make Home Page
A B C D E F G H I J K L M N O P Q R S T U V W X Y Z #

  for    

On TABSPACE
Info About This Tab
Artist: Wasp
Tab Type: Bass
Difficulty: intermediate
Rate This Tab!
Artist:W.A.S.P.
Song:L.O.V.E. Machine
Album:W.A.S.P.
Bassist:Blackie Lawless
Tabber:Dev Fuld

This is one of my favorite W.A.S.P. songs.

Key:
* = let it ring
x = times a number

Intro
Gb:--|---------|---------|---------|---------|--|
Db:--|-----5---|-----5---|-----5---|-----5---|--|
Ab:7*|5-7*---7*|5-7*---7*|5-7*---7*|5-7*---7*|7*|
Eb:--|---------|---------|---------|---------|--|

Verse
Gb:-----------------|------|--------|---|
Db:-----------------|5-----|--------|5--|
Ab:---3*-5*----3*-5*|--5-7*|3*-5*-7*|--5|
Eb:0*-------0*------|------|--------|---|

Chorus
Gb:-----------------|-------|-----------------|-------|-----------------|-------|
Db:-----------------|-------|-----------------|-------|-----------------|-------|
Ab:5-7*-----5-7*----|3x4-5x4|5-7*-----5-7*----|3x4-5x4|5-7*-----5-7*----|3x4-5x4|
Eb:-----0-0------0-0|-------|-----0-0------0-0|-------|-----0-0------0-0|-------|

Gb:-----------------|-------|-----|--|
Db:-----------------|-------|-----|--|
Ab:5-7*-----5-7*----|3x4-5x4|3*-5*|7*|
Eb:-----0-0------0-0|-------|-----|--|

Verse

Chorus

Solo
Gb:--------|--------|--------|--------|-----------|------|------|------|
Db:--------|--------|--------|--------|-----------|------|------|------|
Ab:2x18-3-0|2x18-3-0|2x18-3-0|2x18-3-0|3x42-5-0-2*|5-0-2*|5-0-2*|5-0-2*|
Eb:--------|--------|--------|--------|-----------|------|------|------|

Chorus

End
Gb:--------------------|--------------------|--------------------|------|
Db:2*-----0-3-2-0------|2*-----0-3-2-0------|2*-----0-3-2-0------|2*---2|
Ab:---3-3---------3-2-0|---3-3---------3-2-0|---3-3---------3-2-0|------|
Eb:--------------------|--------------------|--------------------|------|

That's it. This a heavy tune, and the ending is kinda fast at one part so watch out for that. 
This tab is like 100% correct, if you disagree then you can bite me. It's in the correct 
order too. Any questions or comments, e-mail me at rocklvson@yahoo.com



Share "Love Machine" by Wasp


TOP 10 TABS

FRESH NEW TABS

ALL ARTISTS
artist wiki

mp3bear.com
song lyrics / contact us / privacy policy / tabspace toolbar
Copyright 2004 - 2014 TabSpace.com - All Rights Reserved.
song: love machine bass tabs by wasp

0.01