:: Guitar & Bass Tabs Make Home Page
A B C D E F G H I J K L M N O P Q R S T U V W X Y Z #

  for    

On TABSPACE
Info About This Tab
Artist: Tesla
Tab Type: Bass
Rate This Tab!
-------------------------------------------------------------------------------
			     Love Song - Tesla
-------------------------------------------------------------------------------

Tabbed By: O. Briseno
e-mail: omar.bs@gmail.com

Tuning: EADG (Standard)

No bass in the intro

So you think...
G|----------------------------------------------------------|
D|----------------------------9-----------------------------|
A|----------------2------2/7-----7-----------2--------------|
E|---7\0----------------------------0---------------5-------|

Any time you...                                  ...if you need a friend
G|------------------7-----------------------------------------|
D|---5/7-------7/9----9--5----------5--7\---------------------|
A|--------------------------------------------------2---5-----|
E|------------------------------------------------------------|

It's gonna take a little time...
G|------------------------------------------------------------|
D|----------------------------9-------------------------------|
A|----------------2------2/7-----7-----------2----------------|
E|---7\0----------------------------0---------------5---------|

Don't you even worry...
G|------------------7-----------------------------------------|
D|---5/7-------7/9----9--5----------5--7\---------------------|
A|--------------------------------------------------2---5-----|
E|------------------------------------------------------------|

BRIDGE
G|----------------------|
D|----------------------|
A|----5--5--5-----------|
E|---------------7\3----|

Love is all around...
G|------------------------------------------------------------|
D|---------5---4------------------5---4/7---------------------| 
A|----------------------5---------------------5---------------| 
E|---3--3------------------3--3-------------------------------| x2

Waiting for you...
G|---------------------------------------------------------------|
D|---------------------------------------------------------------|
A|------------7-------3----3-3-3-------5---------5---5-----5-----|
E|--0------0-----------------------------------5---5-----5---5--3|

SOLO (x2)
G|------------------------------------------------------------|
D|------------------------------------------------------------|
A|-----------------2---2-2------2---2----------------2--------|
E|--0-----0--0-5--------------2---2---2-0-----0--0------5-----|


G|------------------7-----------------------------------------|
D|---5/7-------7/9----9--5-----5-7\---------------------------|
A|--------------------------------------2--2--2--2-----5------|
E|---------------------------------------------------5--------|

Love will find a way...
G|------------------------------------------------------------|
D|------------------------------------------------------------|
A|--------------5-------5---5------------3/15\----------------|
E|--3--3--3--3--------5---5----0-----0------------------------|

G|------------------------------------------------------------|
D|------------------------------------------------------------|
A|--------------5-------5---5---7--7--7--5-----3--------------|
E|--3--3--3--3--------5---5-----------------------------------| x3


| /  slide up
| \  slide down
| h  hammer-on
| p  pull-off
| ~  vibrato
| +  harmonic
| x  Mute note
===============================================================================


Share "Love Song" by Tesla


TOP 10 TABS

FRESH NEW TABS

ALL ARTISTS
artist wiki

mp3bear.com
song lyrics / contact us / privacy policy / tabspace toolbar
Copyright 2004 - 2014 TabSpace.com - All Rights Reserved.
song: love song bass tabs by tesla

0.047