:: Guitar & Bass Tabs Make Home Page
A B C D E F G H I J K L M N O P Q R S T U V W X Y Z #

  for    

On TABSPACE
Info About This Tab
Artist: Panic At The Disco
Tab Type: Bass
Difficulty: intermediate
Rate This Tab!
Hate mail/corrections/praise..emailed to recordingisgreat@hotmail.co.uk
check my band out too www.myspace.com/closedcase
This is my very first tab!

here is is...

First Verse
G------------------------------------|                         G---|
D------------------------------------|x4   last time finish on D---|
A---3--3-3-3-6-6-5-5-----------------|                         A---|
E--------------------4--4-4-0-4-0-4-6|                         E--4|

pre-chorus-I think an f is played.

Chorus

G---------------------------------------------------------------------|
D---------------------------------------------------------------------|x2
A---3-3-3-3-3-3-3-3---------------------------------------------------|
E-------------------6-6-6-6-6-6-6-6-4-4-4-4-4-4-4-4-4-4-4-4-4-4-4-4---|

Second verse

G------------------------------------------------------------------|
D------------------------------------------------------------------|
A---1--3-3--1--3-3--1--33--6-6-5-5---------------------------------|
E----------------------------------1--4-4-1--4-4--1--4-4-0-4-0-4-6-|

Chorus

G---------------------------------------------------------------------|
D---------------------------------------------------------------------|x2
A---3-3-3-3-3-3-3-3---------------------------------------------------|
E-------------------6-6-6-6-6-6-6-6-4-4-4-4-4-4-4-4-4-4-4-4-4-4-4-4---|

Breakdown

G------|
D------|Let Ring
A--3---|
E------|

Second verse

G------------------------------------------------------------------|
D------------------------------------------------------------------|
A---1--3-3--1--3-3--1--33--6-6-5-5---------------------------------|
E----------------------------------1--4-4-1--4-4--1--4-4-0-4-0-4-6-|


Chorus

G---------------------------------------------------------------------|
D---------------------------------------------------------------------|x2
A---3-3-3-3-3-3-3-3---------------------------------------------------|
E-------------------6-6-6-6-6-6-6-6-4-4-4-4-4-4-4-4-4-4-4-4-4-4-4-4---|

Outro played on piano

Have fun


Share "Lying Is The Most Fun A Girl Can Have Without Taking Her Clothes Off" by Panic At The Disco


TOP 10 TABS

FRESH NEW TABS

ALL ARTISTS
artist wiki

mp3bear.com
song lyrics / contact us / privacy policy / tabspace toolbar
Copyright 2004 - 2014 TabSpace.com - All Rights Reserved.
song: lying is the most fun a girl can have without taking her clothes off bass tabs by panic at the disco

0.027