:: Guitar & Bass Tabs Make Home Page
A B C D E F G H I J K L M N O P Q R S T U V W X Y Z #

  for    

On TABSPACE
Info About This Tab
Artist: Panic At The Disco
Tab Type: Bass
Rate This Tab!
Song: Lying Is The Most Fun A Girl Can Have Without Taking Off Her Clothes
Artist: Panic! At the Disco
Tabbed by: Valerie
e-mail: v_vengeance6661@yahoo.com

Intro
G|-------------------------------------|
D|-----------1-------------------------|
A|-3--3-33-3---1-----------------------|
E|---------------4-4-44-4-1-4-1-4------|  x4

end last part with 4~

Pre-Chorus
G|------------------|
D|------------------|
A|------------------|
E|-11111111111111---|

Chorus
G|-----------------------------------------|
D|--------3h5----------5p3-----------------|
A|-333333----------------------------------|
E|------------66666666----4444444444444444-|  x2

"So I guess we're back.."
G|-----------------------------------|
D|-----------------------------------|
A|-33333333--------------------------|
E|----------66666666-44444444444444--|

Verse (1:03)
G|-----------------------------------------------|
D|-----------------1-----------------------------|
A|-33-1-33-1-33-1-----1------------------------1-|
E|-----------------------44-1-44-1-44-1---3-4----| x2

Chorus
G|-----------------------------------------|
D|--------3h5----------5p3-----------------|
A|-333333----------------------------------|
E|------------66666666----4444444444444444-|  x2

Breakdown. "Dance to this beat..."
G|-------------------------------------------------------|
D|-------------------------------------------------------|
A|-3-33-33-22-2222---------------------------------------|
E|------------------4-44-44-44-4444-1111111111111111-3~--|

Verse
G|-----------------------------------------------|
D|------------------1----------------------------|
A|-33-1-33-1-33-1------1-----------------------1-|
E|-----------------------44-1-44-1-44-1---3-4----| x2

end last part with:
G|----------------------|
D|----------------------|
A|-1-11-1-1-------------|
E|----------11111111----|

Chorus
G|-----------------------------------------|
D|--------3h5----------5p3-----------------|
A|-333333----------------------------------|
E|------------66666666----4444444444444444-|  x2

"So testosterone boys..."
G|-------------------------------------------------------------------------------|
D|-------------------------------------------------------------------------------|
A|-3-33-33-22-2222-------------------33333333-22222222----------------------1----|
E|------------------4444444444444444-------------------44-4-44444444444444-1--4~-|

Hope you enjoyed this tab!


Share "Lying Is The Most Fun A Girl Can Have Without Taking Off Her Clothes" by Panic At The Disco


TOP 10 TABS

FRESH NEW TABS

ALL ARTISTS
artist wiki

mp3bear.com
song lyrics / contact us / privacy policy / tabspace toolbar
Copyright 2004 - 2014 TabSpace.com - All Rights Reserved.
song: lying is the most fun a girl can have without taking off her clothes bass tabs by panic at the disco

0.026