:: Guitar & Bass Tabs Make Home Page
A B C D E F G H I J K L M N O P Q R S T U V W X Y Z #

  for    

On TABSPACE
Info About This Tab
Artist: Last Resort
Tab Type: Guitar
Rate This Tab!
Last resort - Mallory

      ~flatpick~
e|--------------------------------------------------------------------------}
B|--3-----0-3-3-----0-3-0---------0---------3-------3-3-------3-------------}
G|----0-2-------0-2-------0---2-0---0---2-0---0---0-----0---0-----4-----7--- 2X
D|--------------------------0---------0---------2---------2-----5---5-5---5-
A|------------------------------------------3---------3-------3-------------}
E|--3-------3-3-------3-2---------2-----------------------------------------}

e|---------------------------------------------------------------------------
B|--7-7---7---7-7---7---0-0---0---0-0---0--5-5---5---5-5---5--0-0---0---0---0
G|-----------------------------------------------------------------------0-0- 2X
D|------5---------5---------5---------5--------5---------5--------5-------5--
A|--7-------7-7-------7-5-------5-5------5-4-------4-4------4-3-------3-3----
E|---------------------------------------------------------------------------

e|---------------------------------------------------------------------------
B|--0--0---------0---------0---------0---------3---------3---------3---------
G|-----------0---------0---------0---------0---------0---------0---------0---
D|-------0---------0---------0---------0---------0---------0---------2-------
A|---------2---------2---------0---------0---------2---------2-----3---3-----
E|-----3-------3-3-------3-2-------2-2-------2-0-------0-0-------0-----------


e|-------------     e|---0----
B|----3--------     B|---3---- 
G|----------0-- 2x  G|---0----   end of song
D|------2------     D|---0----
A|--3-3---3---3     A|---2----
E|-------------     E|---3----


Share "Mallory" by Last Resort


TOP 10 TABS

FRESH NEW TABS

ALL ARTISTS
artist wiki

mp3bear.com
song lyrics / contact us / privacy policy / tabspace toolbar
Copyright 2004 - 2014 TabSpace.com - All Rights Reserved.
song: mallory guitar tabs by last resort

0.016