:: Guitar & Bass Tabs Make Home Page
A B C D E F G H I J K L M N O P Q R S T U V W X Y Z #

  for    

On TABSPACE
Info About This Tab
Artist: Under The Influence Of Giants
Tab Type: Bass
Difficulty: novice
Tuning: Drop D
Rate This Tab!
This is just the verse, because it's all I had time to transcribe today, I'll do the 
as soon as I figure it out.

Verse
G||-----------------------------|-------------------------------|
D||-----------------------------|-------------------------------|
A||-----------------------------|-------------------------------|
D||--6---x-6---x-6----x-6--6----|--6---x-6---x-6----x-6--6\-----|

-----------------------------|-------------------------------|
-----------------------------|-------------------------------|
-----------------------------|-------------------------------|
--4---x-4---x-4----x-4--4----|--4---x-4---x-4----x-4--4\-----|

-------------------------------|-------------------------------|
-------------------------------|-------------------------------|
-------------------------------|-------------------------------|
--2---x-2---x-2----x-2--2\-----|--4---x-4---x-4----x-4--4\-----|

-----------------------------|------------------------------||
-----------------------------|------------------------------||
-----------------------------|-------11----5-7-9----5-------||
--6---x-6---x-6----x-6--6----|--9-11------------------9-8S--||


Share "Mamas Room Solo" by Under The Influence Of Giants


TOP 10 TABS

FRESH NEW TABS

ALL ARTISTS
artist wiki

mp3bear.com
song lyrics / contact us / privacy policy / tabspace toolbar
Copyright 2004 - 2014 TabSpace.com - All Rights Reserved.
song: mamas room solo bass tabs by under the influence of giants

0.011