:: Guitar & Bass Tabs Make Home Page
A B C D E F G H I J K L M N O P Q R S T U V W X Y Z #

  for    

On TABSPACE
Info About This Tab
Artist: Hall And Oates
Tab Type: Bass
Rate This Tab!
    
    Hall & Oates - "Maneater" - Bass Tabs
    
    Intro:
    |----------------------|---------------------|
    |*---------------------|---------------------|
    |*---------------------|---------------------|
    |--7-7-7---7-7-7-7-7-7-|-5-5-5---5-5-5-5-5-5-|
       1 & 2 & a 3 & a 4 &   1 & 2 & a 3 & a 4 &
    
    |---------------------|----------------------|
    |---------------------|---------------------*|
    |---------------------|-------------------4-*|
    |-3-3-3---3-3-3-3-3-3-|-5-5-5---5-5-5-5-7----|
      1 & 2 & a 3 & a 4 &   1 & 2 & a 3 & a 4 &
    
    Verse 1:
    |----------------------|---------------------|---------------------|
    |*---------------------|---------------------|---------------------|
    |*-7-7-7---7-7-7-7-7-7-|-5-5-5---5-5-5-5-5-5-|-4-4-4---4-4-4-4-4-4-|
    |----------------------|---------------------|---------------------|
       1 & 2 & a 3 & a 4 &   1 & 2 & a 3 & a 4 &   1 & 2 & a 3 & a 4 &
    
    |---------------------|---------------------|---------------------|
    |---------------------|---------------------|---------------------|
    |---------------------|---------------------|---------------------|
    |-7-7-7---7-7-7-7-5-4-|-0-0-0---0-0-0-0-2-4-|-5-5-5---5-7-7-7-7-7-|
      1 & 2 & a 3 & a 4 &   1 & 2 & a 3 & a 4 &   1 & 2 & a 3 & a 4 &
    
    |---------------------|----------------------|
    |---------------------|---------------------*|
    |---------------------|-------------------4-*| (x2)
    |-7-7-7---7-7-7-7-7-7-|-7-7-7---7-7-7-7-7----|
      1 & 2 & a 3 & a 4 &   1 & 2 & a 3 & a 4 &
    
    Chorus:
    |---------------------|---------------------|---------------------|
    |---------------------|---------------------|---------------------|
    |---------------------|---------------------|---------------------|
    |-7-7-7---7-7-7-7-7-7-|-5-5-5---5-5-5-5-5-5-|-3-3-3---3-3-3-3-3-3-|
      1 & 2 & a 3 & a 4 &   1 & 2 & a 3 & a 4 &   1 & 2 & a 3 & a 4 &
    
    |-------------------6-|---------------------|---------------------|
    |-------------9-------|---------------------|---------------------|
    |-----------------4---|---------------------|---------------------|
    |-5-5-5---5-7---7-----|-0-0-0---0-0-0-0-4-2-|-5-5-5---5-7-7-7-7-7-|
      1 & 2 & a 3 & a 4 &   1 & 2 & a 3 & a 4 &   1 & 2 & a 3 & a 4 &
    
    |---------------------|---------------------|
    |---------------------|---------------------|
    |---------------------|-------------------4-|
    |-7-7-7---7-7-7-7-7-7-|-7-7-7---7-7-7-7-7---|
      1 & 2 & a 3 & a 4 &   1 & 2 & a 3 & a 4 &
    
    Verse 2:
    |---------------------|---------------------|---------------------|
    |---------------------|---------------------|---------------------|
    |-7-7-7---7-7-7-7-7-7-|-5-5-5---5-5-5-5-5-5-|-4-4-4---4-4-4-4-4-4-|
    |---------------------|---------------------|---------------------|
      1 & 2 & a 3 & a 4 &   1 & 2 & a 3 & a 4 &   1 & 2 & a 3 & a 4 &
    
    |-----------------------|---------------------|
    |-----------9-9-9-7-7-6-|---------------------|
    |-----------------------|---------------------|
    |-7-7-7---7-------------|-0-0-0---0-0-0-0-2-4-|
      1 & 2 & a 3 & a 4 e &   1 & 2 & a 3 & a 4 &
    
    |---------------------|---------------------|---------------------|
    |---------------------|---------------------|---------------------|
    |---------------------|---------------------|---------------------|
    |-5-5-5---5-7-7-7-7-7-|-7-7-7---7-7-7-7-7-7-|-7-7-7---7-7-7-7-7-7-|
      1 & 2 & a 3 & a 4 &   1 & 2 & a 3 & a 4 &   1 & 2 & a 3 & a 4 &
    
    Chorus
    Instrumental(just verse with slight variations at end)
    End(chorus fade-out)
    
    By: Johari Taylor
    E-mail: viking@powerup.com.au



Share "Maneater" by Hall And Oates


TOP 10 TABS

FRESH NEW TABS

ALL ARTISTS
artist wiki

mp3bear.com
TabSpace.com / contact us / privacy policy / tabspace toolbar
Copyright 2004 - 2016 TabSpace.com - All Rights Reserved.
song: maneater bass tabs by hall and oates

0.006