:: Guitar & Bass Tabs Make Home Page
A B C D E F G H I J K L M N O P Q R S T U V W X Y Z #

  for    

On TABSPACE
Info About This Tab
Artist: Idlewild
Tab Type: Guitar
Rate This Tab!
iDLEWiLD
Meet Me At The Harbour

Guitar tuned down half a step (Eb, Ab, Db, Gb, Bb, Eb)
Intro Riff
Eb----------------------------------------------------------:
Bb----------------------------------------------------------:
Gb-4--4--4-4-4-4--4-4--4-4-4-0------------------------------:
Db-4--4--4-4-4-4--4-4--4-4-4-0-2--2--2-2-0-2--2-2--2-2-2-2--:
Ab-2--2--2-2-0-2--2-2--2-2-2-0-2--2--2-2-0-2--2-2--2-2-2-2--:
Eb-------------2--2-2--2-2-2-0-0--0--0-0-0-0--0-0--0-0-0-0--:
                                                *-------*
:--------------------------------------2------2----2^2--|
:-------------------------------------------------------|
:--4--4--4-4-4-4--4-4--4-4-4-0----4--4---4--4----4-4^4--|
:--4--4--4-4-4-4--4-4--4-4-4-0-2------------------------|
:--2--2--2-2-0-2--2-2--2-2-2-0-2--2--2---2--2----2-2-2--|
:--------------2--2-2--2-2-2-0-0------------------------|

*-------* This section is quite tricky. I think Rod might be using some kind of 
FX pedal to get the weird sound, but what I've transcribed is the nearest sounding
sound. I dunno, use a Whammy pedal if you like... it'll probably turn out better...

Verse Riff
Eb----------------------------------------------------------:
Bb----------------------------------------------------------:
Gb-4--4--4-4-4-4--4-4--4-4-4-0------------------------------:
Db-4--4--4-4-4-4--4-4--4-4-4-0-2--2--2-2-0-2--2-2--2-2-2-2--:
Ab-2--2--2-2-0-2--2-2--2-2-2-0-2--2--2-2-0-2--2-2--2-2-2-2--:
Eb-------------2--2-2--2-2-2-0-0--0--0-0-0-0--0-0--0-0-0-0--:

:-------------------------------------------------------|
:-------------------------------------------------------|
:--4--4--4-4-4-4--4-4--4-4-4-0----4--4-x--4--4--x--4^4--|
:--4--4--4-4-4-4--4-4--4-4-4-0-2------------------------|
:--2--2--2-2-0-2--2-2--2-2-2-0-2--2--2-x--2--2--x--2^2--| ^= slight bend up (blues curl)
:--------------2--2-2--2-2-2-0-0------------------------|  Play x 2

Pre-Chorus Riff
Eb------------------------------------------------|-------------------|
Bb------1p0--------1p0----------1p0--------1p0----|--3-3-3-3-3-3-3-3--|
Gb----------2----------2-----------------2-----2--|--2-2-2-2-2-2-2-2--|
Db----2----------2------------2-----2-0-----------|--0-0-0-0-0-0-0-0--|
Ab-0----------0------------3----------------------|-------------------|
Eb------------------------------------------------|-------------------|
Play x 4					   x 1

Chorus Riff (Guitar 1)
Eb--------------------------------|
Bb--------------------------------|
Gb--7--7--------------------------|
Db--7--7---7----5--5-5-5-5-5-5-5--|
Ab--5--5-x-7-x--5--5-5-5-5-5-5-5--|
Eb---------5-x--3--3-3-3-3-3-3-3--| Play x 8

Chorus Riff (Guitar 2)
Eb--------------------------------|
Bb--------------------------------|
Gb--11-11-x-9-x-7--7-7-7-7-7-7-7--|
Db--------x---x-------------------|
Ab--9--9--x-7-x-5--5-5-5-5-5-5-5--|
Eb--------------------------------| Play x 2

Then play Verse Riff x 2
Then play Pre-Chorus Riff x4 + x1
Then play Chorus Riff (G1 + G2) x 8

Break Riff
Eb-14--12-------------|-14--12-------------|-14--12-------------------|
Bb---------15--14--12-|---------15--14--15-|---------15--14--12-------|
Gb--------------------|--------------------|--------------------------|
Play x 3	       x 1		    x 1

Eb-14--12-------------|-15--14--12--------|-14--12-------------------|
Bb---------15--14--15-|------------15--17-|---------15--14--12-------|
Gb--------------------|-------------------|--------------------------|
Play x 1	       x 1		    x 1

Then play Chorus Riff x 12
End on: 
Eb-------|
Bb-------|
Gb--11~--|
Db--11~--|
Ab--9-~--|
Eb-------|






Share "Meet Me At The Harbour" by Idlewild


TOP 10 TABS

FRESH NEW TABS

ALL ARTISTS
artist wiki

mp3bear.com
song lyrics / contact us / privacy policy / tabspace toolbar
Copyright 2004 - 2014 TabSpace.com - All Rights Reserved.
song: meet me at the harbour guitar tabs by idlewild

0.01