:: Guitar & Bass Tabs Make Home Page
A B C D E F G H I J K L M N O P Q R S T U V W X Y Z #

  for    

On TABSPACE
Info About This Tab
Artist: Misc Television
Tab Type: Guitar
Difficulty: intermediate
Rate This Tab!
Men Behaving Badly - Guitar Tab

E||--------------|--------------------------------|---------|
B||--------------|--------------------------------|---------|
G||--------------|--12----10----10----------------|---------|
D||--10----13----|-----------13----13-12-13-12-10-|-10--13--|
A||--------------|--------------------------------|---------|
E||--------------|--------------------------------|---------|

---------------------------------|--------|---------------------------------|
-----------------------11--------|--------|---------------------------------|
--12----10----10----------13-12--|--------|--12----10----10-----------------|
-----------13----13-12-----------|10--13--|-----------13----13-12-13-12-10--|
---------------------------------|--------|---------------------------------|
---------------------------------|--------|---------------------------------|


   1st ending                2nd ending           Middle Section
-------------------------||-------------------||---------------------------|
-------------------------||-------------------||--------9-8------11-9-8----|
------------------------*||-------------------||--7-8-7-----10-8--------10-|
--13----13----13--------*||--13----13-9-12-10-||---------------------------|
-----11----10----8-9-10--||-----11------------||---------------------------|
-------------------------||-------------------||---------------------------|


                              harmony run 1
--7-8-10---11-10-8----|------------8-10-11-13-10~~-|
---------8---------11-|-----8-9-11-----------------|
----------------------|--10------------------------|
----------------------|----------------------------|
----------------------|----------------------------|
----------------------|----------------------------|


harmony run 2 (played at same time as 1)
-------8-10-11-13-15-16-15~~~--|---------|---------------------------------|
--9-11-------------------------|---------|---------------------------------|
-------------------------------|---------|--12----10----10-----------------|
-------------------------------|---10-13-|-----------13----13-12-13-12-10--|
-------------------------------|---------|---------------------------------|
-------------------------------|---------|---------------------------------|


Guitar lick-------------------------------|
------------------------|-----------------|
------------------------|-----8-11-9-8----|
--------8-10br--8h-10-8-|-----------------|
--8S-10-----------------|--10-------------|
------------------------|-----------------|
------------------------|-----------------|


  End run (good fun to play)
-------------------8-10----10br-8-10-8-|----||
------------8-9-11------11-------------|----||
-----7-8-10----------------------------|--5-||
--10-----------------------------------|--5-||
---------------------------------------|--3-||
---------------------------------------|----||


Share "Men Behaving Badly" by Misc Television


TOP 10 TABS

FRESH NEW TABS

ALL ARTISTS
artist wiki

mp3bear.com
song lyrics / contact us / privacy policy / tabspace toolbar
Copyright 2004 - 2014 TabSpace.com - All Rights Reserved.
song: men behaving badly guitar tabs by misc television

0.01