:: Guitar & Bass Tabs Make Home Page
A B C D E F G H I J K L M N O P Q R S T U V W X Y Z #

  for    

On TABSPACE
Info About This Tab
Artist: Tokio Hotel
Tab Type: Bass
Difficulty: intermediate
Rate This Tab!
Tokio Hotel - Menschen suchen Menschen

e-mail: xCandyRock@gmail.com


Intro:
2 measures rest

then:
D|------------------------------------------------------|
G|------------------------2--------------2--------------|
A|--------2-------------2----2---0-0--3----3---3-3-3-3--|
E|-0--0-3-----3----3-3----------------------------------|

Verse
D|--------------------------|
G|--------------------------|
A|----no-bass-----3-3-3\2~--|
E|--------------------------|

D|-------------------------------------------------------------------|
G|------------------------2--------------2---------------------------|
A|--------2-------------2----2---0-0--3----3---3-3-3-3--0-0-let-ring-|
E|-0--0-3-----3----3-3-----------------------------------------------|

no bass

Chorus
D|---------------------------------------------------------|
G|-----------2----------------2----------------------------|
A|--------------2----------------2----0-0h2-0-3--3-3-2h3p2-|
E|-0-0--3-3---------0--0-3-3-------------------------------|

D|----------------------------------------------------|
G|-----------2----------------2-----------------------|
A|--------------2---------------2----0-0-0-0--3-3-0-2-|
E|-0-0--3-3---------0--0-3-3--------------------------|

D|----------------------------------------------------|
G|-----------2----------------2-----------------------|
A|--------------2---------------2----0-0-0-0--3-3-3-3-|
E|-0-0--3-3---------0--0-3-3--------------------------|

D|----------------------------------------------------|
G|-----------2----------------2-----------------------|
A|--------------2----------------2---0-0-0-0--3-3-5-5-|
E|-0-0--3-3---------0--0-3-3--------------------------|

Post-Chorus
D|----------------|
G|---------2------|
A|------------2---| x3
E|-0--3-3-------0-|

D|-----------|
G|-----------|
A|--3-3-5-5--|
E|-----------|

Verse
D|--------------------------------2------------|
G|-------------------2----------2--------------|
A|--------2--------2------0---3--------3-3\2~--|
E|-0--0-3-----3--3-----------------------------|

D|--------------------------------2------------|
G|-------------------2----------2--------------|
A|--------2--------2------0---3--------3-3-3-3-|
E|-0--0-3-----3--3-----------------------------|

D|-----------------------|
G|-------------0--0--0-0-|
A|-3--3--3-3-------------|
E|-----------------------|


Chorus
D|---------------------------------------------------------|
G|-----------2----------------2----------------------------|
A|--------------2----------------2----0-0h2-0-0--3-3-2h3p2-|
E|-0-0--3-3---------0--0-3-3-------------------------------|

D|--------------------------------------------------------|
G|-----------2----------------2--------------------2-2----|
A|--------------2----------------2---0-2-0----0-3-------2-|
E|-0-0--3-3---------0--0-3-3---------------3--------------|

D|---------------------------------------------------------|
G|-----------2----------------2----------------------------|
A|--------------2----------------2----0-2-3-0--3--3--2-3-2-|
E|-0-0--3-3---------0--0-3-3-------------------------------|

D|-----------------------------------------------------|
G|-----------2----------------2------------------------|
A|--------------2----------------2----0-0-0-0--3-3-5-5-|
E|-0-0--3-3---------0--0-3-3---------------------------|


Bridge
D|------------------------------------------------------------|
G|---------2---------------2-----------2----------------------|
A|------------2---------------2-----------2----3-3-3-3--5h7p5-|
E|-0--3-3-------0--0--3-3-------0--3-3------------------------|

no bass

Solo
D|----------------------------|
G|----------------------------|
A|----------------------------| x3
E|--0--0-0-0--/7-7---33333333-|

D|------------------------------------|
G|------------------------------------|
A|------------------------------------|
E|--0--0-0-0--/7-7---33333333-xxxxxxx-|


Chorus
D|---------------------------------------------------------|
G|-----------2----------------2----------------------------|
A|--------------2----------------2----0-0h2-0-0--3-3-2h3p2-|
E|-0-0--3-3---------0--0-3-3-------------------------------|

D|--------------------------------------------------------|
G|-----------2----------------2--------------------2-2----|
A|--------------2----------------2---0-2-0----0-3-------2-|
E|-0-0--3-3---------0--0-3-3---------------3--------------|

D|---------------------------------------------------------|
G|-----------2----------------2----------------------------|
A|--------------2----------------2----0-2-3-0--3--3--2-3-2-|
E|-0-0--3-3---------0--0-3-3-------------------------------|

D|-----------------------------------------------------|
G|-----------2----------------2------------------------|
A|--------------2----------------2----0-0-0-0--3-3-5-5-|
E|-0-0--3-3---------0--0-3-3---------------------------|

D|------------------------------------------------------------|
G|---------2---------------2-----------2----------------------|
A|------------2---------------2-----------2----3-3-3-3--5h7p5-| x2
E|-0--3-3-------0--0--3-3-------0--3-3------------------------|


Share "Menschen Suchen Menschen" by Tokio Hotel


TOP 10 TABS

FRESH NEW TABS

ALL ARTISTS
artist wiki

mp3bear.com
song lyrics / contact us / privacy policy / tabspace toolbar
Copyright 2004 - 2014 TabSpace.com - All Rights Reserved.
song: menschen suchen menschen bass tabs by tokio hotel

0.024