:: Guitar & Bass Tabs Make Home Page
A B C D E F G H I J K L M N O P Q R S T U V W X Y Z #

  for    

On TABSPACE
Info About This Tab
Artist: Negroamaro
Tab Type: Bass
Rate This Tab!
Mentre tutto scorre
By:Negramaro

Bass tab

Tabbed by Turkish Alfry 
8/06/06

Bass starts quickly (il basso incomincia velocemente)

G|---------------------------------------------------------------|
D|---------------------------------------------------------------|
A|-------------------------------------------1-1-1-1-1-1-1-1-3-4-|
E|--13-13-13-13-(X7)-11-9-8--1-1-1-1-1-1-1-1---------------------|

G|---------------------------------------------------------------|
D|--1-1-1-1-1-1-1-1-1-1-1-1-1-1-1-1------------------------------|
A|----------------------------------3-3-3-3-3-3-3-3-3-4-3-1------|
E|--------from the begin to here then(dall’inizio fino a qui poi)|

G|---------------------------------------------------------------|
D|---------------------------------------------------------------|
A|---------------------------------------------------------------|
E|--1-1-1—-1-1-1—-1-1-1—1--1-3-4-6-6-6-4-4-4-6-6-6-4-4-4-6-6-6-4-|

G|---------------------------------------------------------------|
D|---------------------------------------------------------------|
A|------------------6-6-6-6-6-6-6-6-6-6-6-6-6-6-6-6^-3-3-3-3-3-3-|
E|--4-4-6-6-6-4-4-4----------------------------------------------|

G|---------------------------------------------------------------|
D|---------------------------------------------------------------|
A|--3-3-3-3-4-4-3-3-1-1------------------------------------------|
E|----------------------1

I am not a bass player but I tried to tab this bass tab, which purhups 
It’s not the original one but it matches good with the song.






Share "Mentre Tutto Scorre" by Negroamaro


TOP 10 TABS

FRESH NEW TABS

ALL ARTISTS
artist wiki

mp3bear.com
TabSpace.com / contact us / privacy policy / tabspace toolbar
Copyright © 2004 - 2016 TabSpace.com - All Rights Reserved.
song: mentre tutto scorre bass tabs by negroamaro

0.003