:: Guitar & Bass Tabs Make Home Page
A B C D E F G H I J K L M N O P Q R S T U V W X Y Z #

  for    

On TABSPACE
Info About This Tab
Artist: Sabaton
Tab Type: Guitar
Rate This Tab!
e|----------------------------------------------------------|
B|----------------------------------------------------------|
G|--7--6--4--444--7--7--6--4--------------------------------|
D|----------------------------7~------5W~~--7W~~------------|
A|----------------------------------------------------------|
E|----------------------------------------------------------|
               (5W Whammy 3 Times, 7W Whammy Twice)

|----------------------------------------------------------|
|----------------7--7--5-----5-------5-7-7-7-7-8-7-5-------|
|--7--6--4--444-----------7---------7----------------------|
|----------------------------------------------------------|
|----------------------------------------------------------|
|----------------------------------------------------------|


|----------------------------------------------------------|
|----------------------------------------------------------|
|----4--444--7--7--6--4------------------------------------|
|------------------------7---------------------------------|
|----------------------------------------------------------|
|----------------------------------------------------------|


|----------------------------7-9-10-/12B--12B--12B--12B-12-|
|----------------------7-8-9-------------------------------|
|------------------7-9-------------------------------------|
|--------------7-9-----------------------------------------|
|-------7-9-10---------------------------------------------|
|7-9-10----------------------------------------------------|
 S H H  S H H  S H S H S H H  S H H                                  


e|----------------------------------------------------------|
B|----------------------------------------------------------|
G|----------------------------------------------------------|
D|----------------------------------------------------------|
A|-2-2-5-2-4-2-0-2*------2-5-2-4-2-0------------------------|
E|----------------------------------------------------------|
    (Pitch Harmonics Used On The 2*)


|----------------------------------------------------------|
|----------------------------------------------------------|
|---------------------------------7-6----------------------|
|------------------5---5---5------7-6----------------------|
|-2-2-5-2-4-2-0----5-5-----5------5-4----------------------|
|------------------3-------3-------------------------------|



SOLO: (I'm Trying To Figure It Out)
Play This After Solo.


|----------------------------------------------------------|  }
|----------------------------------------------------------|  }
|--4--/11---4-4---/12---4---/9--/12--/9--/11--/9--/7-------|  }
|----------------------------------------------------------|  }
|----------------------------------------------------------|  }
|----------------------------------------------------------|  }
                                                                  X2
|----------------------------------------------------------|  }
|----------------------------------------------------------|  }
|--4--/11---4-4---/12---4---/9--/11--/9--/7--/9~-----------|  }
|----------------------------------------------------------|  }
|----------------------------------------------------------|  }
|----------------------------------------------------------|  }



   (Riding on this crazy train I'm going paranoid)
|----------------------------------------------------------|
|----------------------------------------------------------|
|--4~-------------------------7~---------------------------|
|--4~--------------5~---------7~----------7~---------------|
|--2~--------------5~---------5~----------7~---------------|
|------------------3~---------------------5~---------------|


|----------------------------------------------------------|
|----------------------------------------------------------|
|--4~44444-----------7~77777-------------------------------|
|--4~44444--5~55555--7~77777--7~77777----------------------|
|--2~22222--5~55555--5~55555--7~77777----------------------|
|-----------3~33333-----------5~55555----------------------|


      (Play This After: The Kings Of Metal Ride The Sky)                
|----------------------------------------------------------|
|----------------------------------------------------------|
|--6~666666------------9~999999----------------------------|
|--6~666666--7~777777--9~999999--9~99999-------------------|
|--4~444444--7~777777--7~777777--9~99999-------------------|
|------------5~555555------------7~77777-------------------|


It's All That I've Figured Out So Far.
This IS 100% Right But It's Not Finished



Share "Metal Machine" by Sabaton


TOP 10 TABS

FRESH NEW TABS

ALL ARTISTS
artist wiki

mp3bear.com
song lyrics / contact us / privacy policy / tabspace toolbar
Copyright 2004 - 2014 TabSpace.com - All Rights Reserved.
song: metal machine guitar tabs by sabaton

0.014