:: Guitar & Bass Tabs Make Home Page
A B C D E F G H I J K L M N O P Q R S T U V W X Y Z #

  for    

On TABSPACE
Info About This Tab
Artist: Daphne Loves Derby
Tab Type: Guitar
Rate This Tab!
Well everyone, this is my first tab. I couldn't find any accurate tabs for this song, so 
decided to tab it myself. Midnight Highway is a good song to play and sing at the same 
because, both vocals and guitar are easy.

The tab is probably 85-90% accurate.
(Listen to the song for strumming pattern.)

e---0---0---0---0--|
B---0---0---0---0--|
G---9---9---9---9--|
D---9---9---9---9--|
A---7---6---0---x--|
E---0---0---0---0--|

Your bitter goodbye is ringing through this quiet night,

This idle hour just won't pass

I've never missed you this much, never thought I would,

Didn't think you'd feel this far away

e----------------------------|(This part is played by 2nd guitar)
B----------------------------|
G----------------------------|
D------14-14-14-13-13--------|
A---------------------14-----|
E------------------------12--|

Your summer perfume is still blowing through this hallway,

Autumn's amber red shadows dance

I miss our midnight rides on highway 18, 18 is gone

Chorus.
e---0---0---0---0-|
B---0---0---0---0-|
G---9---9---9---9-|
D---9---9---9---9-|
A---7---6---0---7-|
E---x---x---x---0-|


So go past the lights and all the excuses

You could have left "sincerely yours"

Don't you think it's obvious that I want to say more?


e---0---0--|
B---0---0--|
G---9---9--|
D---9---9--|
A---11--9--|
E---x---x--|
Cause anything too daring to say to you,

e---0---0---|
B---0---0---|
G---9---9---|
D---9---9---|
A---0---9---|
E---x---x---|
Will be said in this letter, then burned away

e---0---0---|
B---0---0---|
G---9---9---|
D---9---9---|
A---0---9---|
E---x---x---|
So you never realize, I'm here

e---------------------------| 4x
B---------------------------|
G---------------------------|
D------14-14-14-13-13-------|
A---------------------14----|
E------------------------12-|

e---------------------------| (This is played lightly by 2nd guitar over 1st)
B---------------------------|
G----------13---------------|
D---------------------------|
A-------------14--16--11----|
E---------------------------|


e---0---0--|
B---0---0--|
G---9---9--|
D---9---9--|
A---11--9--|
E---x---x--|


I'm thinking of your vague reply

So I can understand

Why we put this at rest

Why we forget to

Say that we were leaving

Say that I was sorry

The past remains unspoken

As this vacant night is dieing

But I still miss your summer perfume

This cold air brings such a distance to us


Such a painful distance

e---0---0---0---0-|
B---0---0---0---0-|
G---9---9---9---9-|
D---9---9---9---9-|
A---7---6---0---7-|
E---x---x---x---0-|


I'm still waiting for you to say you hate me now

So I don't have to hold on to this burning heart


This burning heart is getting old, is getting old

e---0---0--|
B---0---0--|
G---9---9--|
D---9---9--|
A---11--9--|
E---x---x--|
And While sitting on this cold kitchen floor,

Head down to hide the tears,
I've realized. I've finally realized
e---0---0---0---0-|
B---0---0---0---0-|
G---9---9---9---9-|
D---9---9---9---9-|
A---7---6---0---7-|
E---x---x---x---0-|

that you were never,
You were never meant for me

Thats it....Nice song overall


Share "Midnight Highway" by Daphne Loves Derby


TOP 10 TABS

FRESH NEW TABS

ALL ARTISTS
artist wiki

mp3bear.com
song lyrics / contact us / privacy policy / tabspace toolbar
Copyright 2004 - 2014 TabSpace.com - All Rights Reserved.
song: midnight highway guitar tabs by daphne loves derby

0.008