:: Guitar & Bass Tabs Make Home Page
A B C D E F G H I J K L M N O P Q R S T U V W X Y Z #

  for    

On TABSPACE
Info About This Tab
Artist: Jorge Cardoso
Tab Type: Guitar
Rate This Tab!
E-|---Song:-Milonga-(uruguay)----------------------|
A-|---Composer:-Jorge-Cardoso----------------------|
D-|---Transcription-by:Christian Liang-------------|
G-|---E-Mail:christian.liang@gmail.com-------------|   
B-|---http://www.chrisliang.com--------------------|
E-|---Enjoy!---------------------------------------|

==========================================================================
        Milonga (Uruguay)-24 Piezas Sudamericanas by Jorge Cardoso 
==========================================================================

======
Legend
======
Right
p = pulgar = thumb
i = indice = index
m = medio = middle
a = anular = ring

Left
p   = pull off
h   = hammer on
/   = slide
=== = suspend/hold Note
II2 = Barre at fret 2 bottom 2 strings
1._ = ending1

---------------
Tips at bottom
---------------

Time 2/4. 56 bpm. Standard Tuning. Repeat 2X with different ending.


[1] Part A

||--0-----0-----0-|---0-----0-----0-|---0-----0-----0-|---0-----0-----0-|
||----6-----6-----|-----6-----6-----|-----8-----8-----|-----8-----8-----|
||*-----7-----7---|-------7-----7---|-------7-----7---|-------7-----7---|
||*-----7-----7---|-------7-----7---|-------8-----8---|-------8-----8---|
||5==============-|-5==============-|-----------------|-----------------|
||----------------|-----------------|-6==============-|-6==============-|
| | | | | | | | | | | | | | | | | | | | | | | | | | | | | | | | | | | | | 
L 1   2 4   2 4     1   2 4   2 4     1   4 2   4 2     1   4 2   4 2
        3     3           3     3           3     3           3     3

R p a m m a m m a   p a m m a m m a   p a m m a m m a   p a m m a m m a
        i     i           i     i           i     i           i     i


[5]

|---0-----0-----0-|---0-----0-----0-|---0-----0-----0-|---0-----0-----0-|
|-----8-----8-----|-----8-----8-----|-----8-----8-----|-----10----10----|
|-------7-----7---|-------6-----6---|-------5-----5---|-------10----10--|
|-------8-----8---|-------8-----8---|-------7-----7---|-------10----10--|
|-----------------|-----------------|-8==============-|-8==============-|
|-8==============-|-8==============-|-----------------|-----------------|
| | | | | | | | | | | | | | | | | | | | | | | | | | | | | | | | | | | | | 
L 2   4 1   4 1     2   4 1   4 1     3   4 1   4 1     1   4 3   4 3
        3     3           3     3           2     2           2     2

R p a m m a m m a   p a m m a m m a   p a m m a m m a   p a m m a m m a
        i     i           i     i           i     i           i     i
    

[9]

|---0-----0-----0-|---0-----0-----0-|---0-----0-----0-|---0-----0-----0-|
|-----6-----6-----|-----6-----6-----|-----6-----6-----|-----6-----6-----|
|-------7-----7---|-------7-----7---|-------7-----7---|-------7-----7---|
|-------7-----7---|-------7-----7---|-------5-----5---|-------5-----5---|
|-5==============-|-5==============-|-----------------|-----------------|
|-----------------|-----------------|-6==============-|-6==============-|
| | | | | | | | | | | | | | | | | | | | | | | | | | | | | | | | | | | | | 
L 1   2 4   2 4     1   2 4   2 4     2   3 4   3 4     2   3 4   3 4
        3     3           3     3           1     1           1     1

R p a m m a m m a   p a m m a m m a   p a m m a m m a   p a m m a m m a
        i     i           i     i           i     i           i     i
    


[13]                                        Part B

|---0-----0-----0-|---0-----1-----0-|-----------------|-----------------|
|-----6-----6-----|-----2-----2-----|-3=====----3-----|---3-----3-------|
|-------6-----6---|-------0-----0---|-2=====------2---|-----2-------2---|
|-------5-----5---|-------2-----2---|-3=====----------|-3=====----------|
|-0==============-|-0==============-|-------0-1====-0-|-------0---1---0-|
|-----------------|-----------------|-----------------|-----------------|
| | | | | | | | | | | | | | | | | | | | | | | | | | | | | | | | | | | | | 
L     3 2   3 2         3 2 1 3 2     4       1 4 2     3 4 2   4 1 2
        1     1                       2
                                      3

R p a m m a m m a   p a m m a m m a   m     p p m i p   p m i p m p i p
        i     i           i     i     i     
                                      p



[17]                II.......

|-----------------|-----------------|-----------------|---2-------------|
|---2-------2-----|---2-----2-------|---3-------3-----|-----1-------1---|
|-----0-------0---|-----2-------0---|-----2-------2---|-2=====--2-------|
|-2=====----------|-5=====----------|-3=====----------|-------0---1---0-|
|-------0-1-----0-|-------0---1---0-|-------0-1-----0-|-----------------|
|-----------------|-----------------|-----------------|-----------------|
| | | | | | | | | | | | | | | | | | | | | | | | | | | | | | | | | | | | | 
L 2 3     1 3       4 1 1   2 1       3 4 2   1 4 2     3 4 2   3 1 2

R p m i p p m i p   p m i p m p i p   p m i p p m i p   i a m p i p m p



[21]                                        Part C

|---------------0-|-1-------0-------|-----------------|-----5---6-----4-|
|-----------------|-------4-------2-|-3=====----------|---6---8-------5-|
|-0---------------|-----2-------0---|-----------2---2-|-----------------|
|---0-------------|---0=======------|-3=====--0-------|-0==============-|
|-----1-----------|-----------0====-|-------1====-0===|-----------------|
|-------2-3======-|-----------------|-----------------|-----------------|
| | | | | | | | | | | | | | | | | | | | | | | | | | | | | | | | | | | | | 
L     1 2 3         1   2 4       4   4     1   2   2     2 1 3 1     1
                                      3                               3

R i i i p p         a p i m a p i m   m     p i m p m   p i m i m     m
                                      p                               i


[25]

|--5h6p5-3-----2--5-----3--|-----3---6-----5-|--3h5p3-1-----0--3-----1--|
|--6-----5-----4--6-----5--|---5---8-------6-|--5-----3-----2--5-----3--|
|--------------------------|-----------------|--------------------------|
|--------------------------|-----------------|--0===========------------|
|--0===========------------|-0==========-4==-|--------------0==========-|
|--------------0==========-|-----------------|--------------------------|
|  |  |  |  |  |  |  |  |  | | | | | | | | | |  |  |  |  |  |  |  |  |  |
L  1     1     1  1     1      3 1 3 1   1 2    1     1     2  1     1
   3h4p3 3     3  3     3                  3    3h4p3 3        3     3

R  m     m     m  m     m    p i m i m   p m    m     m     m  m     m
   i     i     i  i     i                  i    i     i     i  i     i
   p           p                                p           p


[28]    III...I..                            

|-----1---3-----1-|-1-0-----1---0---|-------------1---|-0======---------|
|---3-------5---3-|-------4---------|---------1-2---2-|-----3-----------|
|---------------1-|-2-0-----2---0---|---1---2---------|-----------2---2-|
|-0=====----------|-------4---------|---------2======-|-0======-0-------|
|-------3====-1===|-0==============-|-0=======--------|-------1====-0==-|
|-----------------|-----------------|-----------------|-----------------|
| | | | | | | | | | | | | | | | | | | | | | | | | | | | | | | | | | | | | 
L   3 1 1 1 3 1 1   1     4 1           1   3 1 3 1 3       4 1   2   2
                3   2     3 2                 2
                1

R p m a p a m p a   a a   m a   a     p i   m i m a m   a   m p i m p m
                m   i i   p i   i             p         p
                i   p

[32]                III..       III           VIII...

|-----5---6-----4-|-5-3---2-5---3---|-----7---8-------|-----------------|
|---6---8-------5-|-3---------------|---------------8-|-11------10------|
|-----------------|-3-----0-----3---|---5---0-----9---|-----------------|
|-0==============-|-----------------|-----------------|-------10====----|
|-----------------|-----------------|-7=======--10----|-8======-----7==-|
|-----------------|-3==============-|---------8======-|-----------------|
| | | | | | | | | | | | | | | | | | | | | | | | | | | | | | | | | | | | | 
L   2 1 3 1     1   3 1   1 4   1     3 1 4   1 3 2 1   4     3 4   1
                3   1           1             1         1
                    1
                    1
R p i m i m     m   a m   i m   i     p i a i a p i m   a     p m   p
                i   m           p             p         p
                    i
                    p

[36]                                                      III II    

|-----1---3-----1-|-1-----0---------|-----0---1-----0-|-0-------0-------|
|-----------------|-----------5-4-5-|-----------------|---3---2-----3==-|
|---2---3-------2-|-1---------------|---0---2-------0-|-0-------0-------|
|-0==============-|-----------6-5-6-|-----------------|---3---2-----3==-|
|-----------------|-----------------|-0==========-4==-|-5=======--------|
|-----------------|-0==============-|-----------------|-----------------|
| | | | | | | | | | | | | | | | | | | | | | | | | | | | | | | | | | | | | 
L   2 1 3 4     1   1         2 2 2         2 1   4     4 1   1     4
                2   2         3 3 3                       1   1     3

R p i a i a     a   a     a   m m m   p i a i a   p a   a m   m a   m
                i   i         p p p                 i   i p   p i   p
                    p                               p   p

[40]Part D          III3............                    I.............

|-----1-----1-----|-----3-----3-----|-0---0-----0-----|-----1-----1-----|
|-----3-----3-----|---3-----3---6(3)|-1---1-----1-----|---1-----1-------|
|-------------0-2-|-5====-3=======--|---------------0-|-3====-2=====----|
|---0==-2-3==-----|---------------0-|-------0-2---3---|-------------3-2-|
|-----------------|-----------------|---3-------------|-----------------|
|-----------------|-----------------|-----------------|-----------------|
| | | | | | | | | | | | | | | | | | | | | | | | | | | | | | | | | | | | | 
L     1 2 3 1   3   3 1 1 1 1 1 4     1 3 1   2 1 3     3 1 1 2 1 1 3 2
      4     4

R   p i p p i p p   p i m p i m i p   m p m p p m p p   p i m p i m p p
                                      i   i     i          


[44]                      Part A Variation

|-----10--8---6---|-5=====----------|-----------------|-----------------|
|-----------------|-------------5---|-----3-------2---|---3-------3-----|
|---10---9--7---6-|-----------3-----|---1-------0-----|-----2-------2---|
|-0==============-|-------3/5-----2-|-3====-1-2=====--|-0=====----------|
|-----------------|-0=====----------|---------------4-|-------0-1====-0-|
|-----------------|-----------------|-----------------|-----------------|
| | | | | | | | | | | | | | | | | | | | | | | | | | | | | | | | | | | | | 
L   3 4 3 2 3 2 3   2     3   1 4 2   3 1 4 1 1   3 4     4 2   1 4 2

R p i m i m i m i   m     p   i m p   p i m p p i m p   p m i p p m i p
                    p


[48]                                  II.....

|-----------------|-----------------|-----------------|-----------------|
|---3-----3-------|---2-------2-----|---2-----2-------|---3-------3-----|
|-----2-------2---|-----0-------0---|-----2-------0---|-----2-------2---|
|-3=====----------|-2=====----------|-5=====----------|-3=====----------|
|-------0---1---0-|-------0-1====-0-|-------0---1---0-|-------0-1====-0-|
|-----------------|-----------------|-----------------|-----------------|
| | | | | | | | | | | | | | | | | | | | | | | | | | | | | | | | | | | | | 
L 3 4 2   4 1 2     2 3     1 2       4 1 1   2 1       3 4 2   1 4 2

R p m i p m p i p   p m i p p m i p   p m i p m p i p   p m i p p m i p




[52]
                                                        1._____________ 
|---2-------------|---------------0-|-1-------0-------|----------------||
|-----1-------1---|-----------------|-------4-------2-|-3======-------*||
|-2=====--2-------|-0---------------|-----2-------0---|----------------|| 
|-------0---1---0-|---0-------------|---0=======------|-3======--------||
|-----------------|-----1-----------|-----------0====-|-----------3/4-*||
|-----------------|-------2-3======-|-----------------|----------------|| 
| | | | | | | | | | | | | | | | | | | | | | | | | | | | | | | | | | | | | 
L 3 4 2   3 1 2         1 2 3         1   2 4       4   4         1
                                                        3

R i a m p i p m p   i i i p p         a p i m a p i m   m         p
                                                        p



  2._________________________________
         V........  III.............

|-----------------|-----------------|
|-3=====----------|-3=============--|
|-----------6==---|-----------------|
|-3=====----5==---|-3=============--|
|-----------7==-5-|-----------------|
|-------2/5-------|-----------------|
| | | | | | | | | | | | | | | | | | | 
L 4     1   2   1   1
  3         3       1

R m     p   a   i   m
  p         m       p
            i
            p


 ----
|Tips|
 ----
I recently discovered Milonga by Jorge Cardoso and fell in love! I plan 
to try out more of his songs soon. As usual I have tabbed out for both 
hands. However, fingering are suggestive. What i have here is a system 
that best works for me. Go ahead and make your own fingering or note
changes where you see fit.

Milonga is not very hard to play if you approach it in Parts. 
There are 4 unique parts in Milonga. I suggest to focus on each part 
individually and piece it back together later. 

Part A: Bar[1]-[14]
Arpeggios. Left Hand is complex while the right (thankfully) remains the 
same pattern.  Pay attention to fingering of the left hand to keep chord 
transition smooth. Play Slow.
Bar[8] To play this arpeggio clean. Keep your thumb at the bottom part of
the neck and bend yours wrist outwars nearly at a right angle. ouch!
Bar[10]-[11] Transition of chords. keep pinky on strings(same note) as you 
move your other 3 fingers

Part B: 
Bar[15]-[22]
Arpeggios with prominent thumb (bass) action. 
Bar[45]-[55]
A longer variation of this arpeggio at the closure. 

Part C: 
Bar[25], [27]
Up and down neck movement with some quick pull offs and slides for the left. 
Bar[29], [39]
Double stops or intervals (2 notes) to keep your right hand busy.

Part D: Bar[40]-[45]
Thumb(Down) and Index/Middle(up) pattern




Share "Milonga" by Jorge Cardoso


TOP 10 TABS

FRESH NEW TABS

ALL ARTISTS
artist wiki

mp3bear.com
TabSpace.com / contact us / privacy policy / tabspace toolbar
Copyright 2004 - 2016 TabSpace.com - All Rights Reserved.
song: milonga guitar tabs by jorge cardoso

0.019