:: Guitar & Bass Tabs Make Home Page
A B C D E F G H I J K L M N O P Q R S T U V W X Y Z #

  for    

On TABSPACE
Info About This Tab
Artist: Acab
Tab Type: Bass
Rate This Tab!
BASS TABS
BERMIMPI DI SIANG HARI - ACAB
TABS BY : AJI

   INTRO

1|---------------------------------------|-------------------------------------|
2|---------------------------------------|-6.---6.---6.---6.---6.---6.---6---5-|
3|-7.---7.---7.---7.---7.---7.---7.---7.-|-------------------------------------|
4|---------------------------------------|-------------------------------------|

1|-------------------------|--------------------------------|
2|-4---4-----4.---4-----4.-|-7.---7.---7.---7.---9----------|
3|--------4----------4-----|--------------------------------|
4|-------------------------|--------------------------------|

   VERSE

1|----------------------------------------|-------------------------------------|
2|o---------------------------------------|-6.---6.---6.---6.---6.---6.---6---5-|
3|o-7.---7.---7.---7.---7.---7.---7.---7.-|-------------------------------------|
4|----------------------------------------|-------------------------------------|

1|-------------------------|----------------------------------------|
2|-4---4-----4.---4-----4.-|-7.---7.---7.---7.---9.---9.---9.---9.-o|
3|--------4----------4-----|---------------------------------------o|
4|-------------------------|----------------------------------------|

   BRIDGE

1|-----------------------------------------|
2|-----------------------------------------|
3|-----------------------------------------|
4|-5.---5.---4---2---7.---7.---7.---7.-----|

1|-----------------------------------------|
2|-----------------------------------------|
3|-7.---7.---6---4---9.---9.---9.---9.-----|
4|-----------------------------------------|

1|---------------------------|
2|---------------------------|
3|---------------------------|
4|-5.---5---4.---4---2.---2--|

1|------------------------------------------|
2|------------------------------------------|
3|-7.---7---6.---6---4.---4-----------------|
4|----------------------------7-7-7-7-7-7-7-|

   CHORUS

1|-------------------------|-4---4-------4-----4---4-5-|-6---6-------6---6----|
2|-2---2-------2---2----2.-|-------4---4-----6---6-----|-------6---6-------6.-|
3|-------2---2-------2-----|---------------------------|----------------------|
4|-------------------------|---------------------------|----------------------|

1|-------------------------4---4-5-|-6---6-------6---6----|
2|---4-5-6---6-------6---6---6-----|-------6---6-------6.-|
3|-6-----------6---6---------------|----------------------|
4|---------------------------------|----------------------|

1|---------------------|-----------------------------|
2|---4-5-6---6-------6-|-6-5-4---4-----4.---4-----4.-|
3|-6-----------6---6---|------------4----------4-----|
4|---------------------|-----------------------------|

1|---------------------------------------|
2|-7.---7.---7.---7.---9.---9.---9.---9.-|
3|---------------------------------------|
4|---------------------------------------|

  Guitar Solo

1|-6---6-------6---6---6.-|-------------------------|
2|-------6---6-------6----|-4---4-------4---4----4.-|
3|------------------------|-------4---4-------4-----|
4|------------------------|-------------------------|

1|-4---4-------4---4---4.-|-4----------------------|
2|-------4---4-------4----|------7----6----4-------|
3|------------------------|------------------------|
4|------------------------|------------------------|

1|-6---6-------6---6---6.-|-------------------------|
2|-------6---6-------6----|-4---4-------4---4----4.-|
3|------------------------|-------4---4-------4-----|
4|------------------------|-------------------------|

1|-4---4-------4---4---4.-|-4----------------------|
2|-------4---4-------4----|------7----6----4-------|
3|------------------------|------------------------|
4|------------------------|------------------------|

BRIDGE

1|-----------------------------------------|
2|-----------------------------------------|
3|-----------------------------------------|
4|-5.---5.---4---2---7.---7.---7.---7.-----|

1|-----------------------------------------|
2|-----------------------------------------|
3|-7.---7.---6---4---9.---9.---9.---9.-----|
4|-----------------------------------------|

1|---------------------------|
2|---------------------------|
3|---------------------------|
4|-5.---5---4.---4---2.---2--|

1|------------------------------------------|
2|------------------------------------------|
3|-7.---7---6.---6---4.---4-----------------|
4|----------------------------7-7-7-7-7-7-7-|

 CHORUS

1|-------------------------|-4---4-------4-----4---4-5-|-6---6-------6---6----|
2|-2---2-------2---2----2.-|-------4---4-----6---6-----|-------6---6-------6.-|
3|-------2---2-------2-----|---------------------------|----------------------|
4|-------------------------|---------------------------|----------------------|

1|-------------------------4---4-5-|-6---6-------6---6----|
2|---4-5-6---6-------6---6---6-----|-------6---6-------6.-|
3|-6-----------6---6---------------|----------------------|
4|---------------------------------|----------------------|

1|---------------------|-----------------------------|
2|---4-5-6---6-------6-|-6-5-4---4-----4.---4-----4.-|
3|-6-----------6---6---|------------4----------4-----|
4|---------------------|-----------------------------|

1|---------------------------------------|
2|-7.---7.---7.---7.---9.---9.---9.---9.-|
3|---------------------------------------|
4|---------------------------------------|

1|-------------------------|-4---4-------4-----4---4-5-|-6---6-------6---6----|
2|-2---2-------2---2----2.-|-------4---4-----6---6-----|-------6---6-------6.-|
3|-------2---2-------2-----|---------------------------|----------------------|
4|-------------------------|---------------------------|----------------------|

1|-------------------------4---4-5-|-6---6-------6---6----|
2|---4-5-6---6-------6---6---6-----|-------6---6-------6.-|
3|-6-----------6---6---------------|----------------------|
4|---------------------------------|----------------------|

1|---------------------|-----------------------------|
2|---4-5-6---6-------6-|-6-5-4---4-----4.---4-----4.-|
3|-6-----------6---6---|------------4----------4-----|
4|---------------------|-----------------------------|

1|---------------------------------------|
2|-7.---7.---7.---7.---9-----------------|
3|---------------------------------------|
4|---------------------------------------|

 90% complete..
 any corrections, email me pdls_esp86@yahoo.com


Share "Mimpi Di Siang Hari" by Acab


TOP 10 TABS

FRESH NEW TABS

ALL ARTISTS
artist wiki

mp3bear.com
song lyrics / contact us / privacy policy / tabspace toolbar
Copyright 2004 - 2014 TabSpace.com - All Rights Reserved.
song: mimpi di siang hari bass tabs by acab

0.015