:: Guitar & Bass Tabs Make Home Page
A B C D E F G H I J K L M N O P Q R S T U V W X Y Z #

  for    

On TABSPACE
Info About This Tab
Artist: 30 Seconds To Mars
Tab Type: Guitar
Rate This Tab!
-------------------------------------------------------------------------------
			                       THE MISSION ACOUSTIC - 30 Seconds To Mars
-------------------------------------------------------------------------------
Tabbed by: Johnsen
Email: Johannesberchtold@gmx.at

Tuning: One Step Down
(You can also play it in standart Tuning, then you have to do each number -2. The reason why i 
 tabbed it one step down is, that i was too lazy to tune my guitar up... Another reason is, that
 some guys always have their guitar in drop C so you can also play it in drop C...)

IMPORTANT:
If someone tabbs the acoustic bassline to this song , please send it to me (I 
just started to play bass, so it'
too difficult for mit do figure it out.


Enough talking, there you go:



The first part is without guitar.

I open up my head
Inside I find another person's mind
I'm gonna take this chance I've got
I run denying as we speak
Hiding my face among the weak
Some say their day is all away


d|---------------------------------------------------------------------------| 
A|---------------6-6-6-6-6-6-6-6-6-6-6-/9-9-9-9-9-9-9-9-9-9-9-8-8-8-8-8-8----| 
F|---------------5-5-5-5-5-5-5-5-5-5-5-/8-8-8-8-8-8-8-8-8-8-8-8-8-8-8-8-8----| 
C|---------------3-3-3-3-3-3-3-3-3-3-3-/6-6-6-6-6-6-6-6-6-6-6-8-8-8-8-8-8----| 
G|------------------------------------------------------------6-6-6-6-6-6----|
D|---------------------------------------------------------------------------|
   Into the wild           I'm with a mission     Over the hill           


d|--------------------------------------------------------------|
A|--8-8-8-8-8--8/9-9-9--8-8-8--8/9-9-9--8--6-6--6-6--9-6-6------|
F|--8-8-8-8-8--7/8-8-8--7-7-7--7/8-8-8--7--5-5--5-5--8-5-5------|
C|--8-8-8-8-8--5/6-6-6--5-5-5--5/6-6-6--5--3-3--3-5--6-3-3------|
G|--6-6-6-6-6---------------------------------------------------|
D|--------------------------------------------------------------|
   Come here with me                      Into the wild
    

d|--------------------------------------------|
A|------------6-6--6-6--9-9-9-9-9/11----------|
F|------------5-5--5-5--8-8-8-8-8/10----------|
C|------------3-3--3-3--6-6-6-6-6/-8----------|
G|--------------------------------------------|
D|--------------------------------------------|
    Into the wild

d|-----------------------------------------------------------------------------------------| 
A|----6-6-6-6-6-6-6-6-6-6-6-/9-9-9-9-9-9-9-9-9-9-9-8-8-8-8-8-8--8/9-9-9--8-8-8--8/9-9-9--8-| 
F|----5-5-5-5-5-5-5-5-5-5-5-/8-8-8-8-8-8-8-8-8-8-8-8-8-8-8-8-8--7/8-8-8--7-7-7--7/8-8-8--7-| 
C|----3-3-3-3-3-3-3-3-3-3-3-/6-6-6-6-6-6-6-6-6-6-6-8-8-8-8-8-8--5/6-6-6--5-5-5--5/6-6-6--5-|
A|-------------------------------------------------6-6-6-6-6-6-----------------------------|
D|-----------------------------------------------------------------------------------------|
 hmmmmmmmmmmmmmmmmmmmm ooooooooooooooooooooon 'my way-y-y-y     (I'm not sure about hese lyrics!)
     (I'mmmmmmmmmmmmmmmmmmm)?

d|---------------------------------------------------------------------------------------------| 
A|----6-6-6-6-6-6-6-6-6-6-6-/9-9-9-9-9-9-9-9-9-9-9-8-8-8-8-8-8--8/9-9-9--8-8-8--8/9-9-9--8--11-| 
F|----5-5-5-5-5-5-5-5-5-5-5-/8-8-8-8-8-8-8-8-8-8-8-8-8-8-8-8-8--7/8-8-8--7-7-7--7/8-8-8--7--10-| 
C|----3-3-3-3-3-3-3-3-3-3-3-/6-6-6-6-6-6-6-6-6-6-6-8-8-8-8-8-8--5/6-6-6--5-5-5--5/6-6-6--5---8-|
G|-------------------------------------------------6-6-6-6-6-6---------------------------------|
D|---------------------------------------------------------------------------------------------|
      Seeeeeeeeeeeeeeeeeeee  theeeeeeeeeeeeeeeeeee cha-a-a-ange       


High above the serpentine
I cross below the well - worn lines
Entangled in a missing memory yeah yeah yeah


d|-1111-3333-4444-3333---------4444----6666----8888----6666-------|
A|----------------------------------------------------------------|
F|----------------------------------------------------------------|
C|----------------------------------------------------------------|
G|----------------------------------------------------------------|
D|----------------------------------------------------------------|
   I find an oversight    I formed this sword that will give rise

d|--8888----9999-----1111111111----9999---------------------------|
A|----------------------------------------------------------------|
F|----------------------------------------------------------------|
C|----------------------------------------------------------------|
G|----------------------------------------------------------------|
D|----------------------------------------------------------------|
   To something the world is here to seize


d|-------------------------------------|
A|-----------------6-6--6-6--9-6-6-----|
F|-----------------5-5--5-5--8-5-5-----|
C|-----------------3-3--3-5--6-3-3-----|
G|-------------------------------------|
D|-------------------------------------|
    Into the wild

d|-------------------------------------|
A|-----------------6-6--6-6--9-6-6-----|
F|-----------------5-5--5-5--8-5-5-----|
C|-----------------3-3--3-5--6-3-3-----|
G|-------------------------------------|
D|-------------------------------------|
    Into the wild


d|----------------------------------------------------------------|
A|-----66---88---99---88---99---8---9---11------------------------|
F|----------------------------------------------------------------|
C|----------------------------------------------------------------|
G|----------------------------------------------------------------|
D|----------------------------------------------------------------|
   I'm underwater breathing this is like a dream

d|-----------------------8--9--11--9--8--9--11--9-----------------|
A|---66--88--99--88--99-------------------------------------------|
F|----------------------------------------------------------------|
C|----------------------------------------------------------------|
G|----------------------------------------------------------------|
D|----------------------------------------------------------------|
   To faar apart from everything that I've seen (also not sure about the lyrics!)

d|----------------------------------------------------------------|
A|-----66---88---99---88---99---8---9---11------------------------|
F|----------------------------------------------------------------|
C|----------------------------------------------------------------|
G|----------------------------------------------------------------|
D|----------------------------------------------------------------|
   I'm underwater breathing this is like a dream

d|-----------------------8--9--11--9--8--9--11--9-----------------|
A|---66--88--99--88--99-------------------------------------------|
F|----------------------------------------------------------------|
C|----------------------------------------------------------------|
G|----------------------------------------------------------------|
D|----------------------------------------------------------------|
   To faar apart from everything that I've seen (also not sure about the lyrics!)


Into the wild         
I'm with a mission
Over the hill      
Come here with me

d|-----------------------------------------------------------------------------------------| 
A|----6-6-6-6-6-6-6-6-6-6-6-/9-9-9-9-9-9-9-9-9-9-9-8-8-8-8-8-8--8/9-9-9--8-8-8--8/9-9-9--8-| 
F|----5-5-5-5-5-5-5-5-5-5-5-/8-8-8-8-8-8-8-8-8-8-8-8-8-8-8-8-8--7/8-8-8--7-7-7--7/8-8-8--7-| 
C|----3-3-3-3-3-3-3-3-3-3-3-/6-6-6-6-6-6-6-6-6-6-6-8-8-8-8-8-8--5/6-6-6--5-5-5--5/6-6-6--5-|
G|-------------------------------------------------6-6-6-6-6-6-----------------------------|
D|-----------------------------------------------------------------------------------------|
 hmmmmmmmmmmmmmmmmmmmm ooooooooooooooooooooon 'my way-y-y-y     (I'm not sure about hese lyrics!)
     (I'mmmmmmmmmmmmmmmmmmm)?
d|---------------------------------------------------------------------------------------------| 
A|----6-6-6-6-6-6-6-6-6-6-6-/9-9-9-9-9-9-9-9-9-9-9-8-8-8-8-8-8--8/9-9-9--8-8-8--8/9-9-9--8--11-| 
F|----5-5-5-5-5-5-5-5-5-5-5-/8-8-8-8-8-8-8-8-8-8-8-8-8-8-8-8-8--7/8-8-8--7-7-7--7/8-8-8--7--10-| 
C|----3-3-3-3-3-3-3-3-3-3-3-/6-6-6-6-6-6-6-6-6-6-6-8-8-8-8-8-8--5/6-6-6--5-5-5--5/6-6-6--5---8-|
G|-------------------------------------------------6-6-6-6-6-6---------------------------------|
D|---------------------------------------------------------------------------------------------|
      Seeeeeeeeeeeeeeeeeeee  theeeeeeeeeeeeeeeeeee cha-a-a-ange       

From here on, there's a second guitar

d|-----------------------------------------------------------------------------------------| 
A|----6-6-6-6-6-6-6-6-6-6-6-/9-9-9-9-9-9-9-9-9-9-9-8-8-8-8-8-8--8/9-9-9--8-8-8--8/9-9-9--8-| 
F|----5-5-5-5-5-5-5-5-5-5-5-/8-8-8-8-8-8-8-8-8-8-8-8-8-8-8-8-8--7/8-8-8--7-7-7--7/8-8-8--7-| 
C|----3-3-3-3-3-3-3-3-3-3-3-/6-6-6-6-6-6-6-6-6-6-6-8-8-8-8-8-8--5/6-6-6--5-5-5--5/6-6-6--5-|
G|-------------------------------------------------6-6-6-6-6-6-----------------------------|
D|-----------------------------------------------------------------------------------------|
  hmmmmmmmmmmmmmmmmmmmm ooooooooooooooooooooon 'my way-y-y-y     (I'm not sure about hese lyrics!)
     (I'mmmmmmmmmmmmmmmmmmm)?
d|---------------------------------------------------------------------------------------------| 
A|----6-6-6-6-6-6-6-6-6-6-6-/9-9-9-9-9-9-9-9-9-9-9-8-8-8-8-8-8--8/9-9-9--8-8-8--8/9-9-9--8--11-| 
F|----5-5-5-5-5-5-5-5-5-5-5-/8-8-8-8-8-8-8-8-8-8-8-8-8-8-8-8-8--7/8-8-8--7-7-7--7/8-8-8--7--10-| 
C|----3-3-3-3-3-3-3-3-3-3-3-/6-6-6-6-6-6-6-6-6-6-6-8-8-8-8-8-8--5/6-6-6--5-5-5--5/6-6-6--5---8-|
G|-------------------------------------------------6-6-6-6-6-6---------------------------------|
D|---------------------------------------------------------------------------------------------|
      Seeeeeeeeeeeeeeeeeeee  theeeeeeeeeeeeeeeeeee cha-a-a-ange          Rearrange!


d|----------------------|
A|--6-6--6-6--9-6-6-----|
F|--5-5--5-5--8-5-5-----|
C|--3-3--3-5--6-3-3-----|
G|----------------------|
D|----------------------|
    Into the wild


Share "Mission Acoustic" by 30 Seconds To Mars


TOP 10 TABS

FRESH NEW TABS

ALL ARTISTS
artist wiki

mp3bear.com
song lyrics / contact us / privacy policy / tabspace toolbar
Copyright 2004 - 2014 TabSpace.com - All Rights Reserved.
song: mission acoustic guitar tabs by 30 seconds to mars

0.021