:: Guitar & Bass Tabs Make Home Page
A B C D E F G H I J K L M N O P Q R S T U V W X Y Z #

  for    

On TABSPACE
Info About This Tab
Artist: Fear
Tab Type: Bass
Rate This Tab!
Band: Fear
Album: More Beer

G|------------------|
D|------------------|
A|-777-7777--5-5----|
E|------------5-5---|


G|---------------------|
D|---------------------|
A|-777-7777--5---6-7---|
E|------------5-6---7--|

Just listen to the song and you'll figure it out.


Share "More Beer" by Fear


TOP 10 TABS

FRESH NEW TABS

ALL ARTISTS
artist wiki

mp3bear.com
song lyrics / contact us / privacy policy / tabspace toolbar
Copyright 2004 - 2014 TabSpace.com - All Rights Reserved.
song: more beer bass tabs by fear

0.011