:: Guitar & Bass Tabs Make Home Page
A B C D E F G H I J K L M N O P Q R S T U V W X Y Z #

  for    

On TABSPACE
Info About This Tab
Artist: George Thorogood
Tab Type: Bass
Rate This Tab!
Title: Move it on over
Artist: Georges Thorogood
Album: Move it on over
Tabber: Steph
Email: cyberbassist@hotmail.com


bass enter 0:06
G|-------------------------------------------------------------------------|
D|-------------------------------------------------------------------------|
A|3-33-33-33-33-33-33-33-3------------------------5-55-55-55-5-3-33-33-33-3|
E|------------------------3-33-33-33-33-33-33-33-3-------------------------|



G|-----------------------------------------------------------------------|
D|-----------------------------------------------------------------------|
A|---------------3-4-5---------------------------------------------------|
E|-3-33-33-33-33---------------------------------------------------------|



G|-----------------------------------------------------------------------|
D|-----------------------------------------------------------------------|
A|------------------------------------------------3-33-33-33-33-33-33-33-|
E|-3-33-33-33-33-33-33-33-33-33-33-33-33-33-33-33------------------------|


G|-------------------------------------------------------------------------|
D|-------------------------------------------------------------------------|
A|--------------------------5-55-55-55-5--3-33-33-33-3--------------3-4-5--|
E|-3-33-33-33-33-33-33-33-3----------------------------3-33-33-33-33-------|

Solo

G|-----------------------------------------------------------------------|
D|-----------------------------------------------------------------------|
A|------------------------------------------------3-33-33-33-33-33-33-33-|
E|-3-33-33-33-33-33-33-33-33-33-33-33-33-33-33-33------------------------|


G|-------------------------------------------------------------------------|
D|-------------------------------------------------------------------------|
A|--------------------------5-55-55-55-5--3-33-33-33-3--------------3-4-5--|
E|-3-33-33-33-33-33-33-33-3----------------------------3-33-33-33-33-------|

Ending
G|-------------||
D|-------------||
A|22-2-345-----||
E|--------5-3~-||

EnJOy!



Share "Move It On Over" by George Thorogood


TOP 10 TABS

FRESH NEW TABS

ALL ARTISTS
artist wiki

mp3bear.com
song lyrics / contact us / privacy policy / tabspace toolbar
Copyright 2004 - 2014 TabSpace.com - All Rights Reserved.
song: move it on over bass tabs by george thorogood

0.051