:: Guitar & Bass Tabs Make Home Page
A B C D E F G H I J K L M N O P Q R S T U V W X Y Z #

  for    

On TABSPACE
Info About This Tab
Artist: Electric Six
Tab Type: Guitar
Difficulty: novice
Rate This Tab!
This song has some distortion in it and there are some parts where both guitars can be 
And this is also my first tab so I hope it’s good.

Main Riff
|--------------------------------------------------|
|--------------------------------------------------|
|--3-3-3---5-5-5-5-5----0-0-0-0-0-0-0--------------|
|--5-5-5---5-5-5-5-5----5-5-5-5-5-5-5--------------|
|--5-5-5---5-5-5-5-5----5-5-5-5-5-5-5--------------|
|-----------------------3-3-3-3-3-3-3--------------|


Low E
|--------------------------------------------|
|--------------------------------------------|
|--------------------------------------------|
|--------------------------------------------|
|--------------------------------------------|
|--6-6-6/3-3-3-3-3/8-8-8-8-8-8-8-8-----------|

Riff B
   A#     G           C
|-------------------------------------------------|
|-------------------------------------------------|
|-------------------------------------------------|
|-------------------------------------------------|
|--8-8-8--5-5-5-5-5---10-10-10-10-10-10-10-10-----|
|--6-6-6--3-3-3-5-5---8--8--8--8--8--8--8--8------|

Solo:
|--8b6--10-8b6---8b6---8b6—-x2—----8b6--10-8b6---13b-10—8-6---------|
|--------------8-----8----------------------------------------------|
|-------------------------------------------------------------------|
|-------------------------------------------------------------------|
|-------------------------------------------------------------------|
|-------------------------------------------------------------------|

G line
|------------------------------------------|
|------------------------------------------|
|-3-3-3-5-5-5-5-5-0-0-0-0-0-0-0-0--x6------|
|------------------------------------------|
|------------------------------------------|
|------------------------------------------|

B line
|--------------------------------------------|
|-8-8-8-8-8-8-8-8-8-8-8-8-8-8-8-8-8-8-8-etc.-|
|--------------------------------------------|
|--------------------------------------------|
|--------------------------------------------|
|--------------------------------------------|

Main Riff x10:
Look at young girls with your television eyes
Fixated on not telling despicable lies
We pray on your obsession with candy
And you do what we want you to

So play that guitar
And bring order to the stars
Turn up your stereo
And drive around in your cars
And don't think about coming back home
Until you've never gone anywhere

Low E:
'Cause you are not sure if you are going up or down

Main Riff

Low E:
Expectations go out the window
When Mr. Woman comes to town

Main Riffx8
'Cause when you talk nobody listens
You shoot to kill, but you keep missing
They've got you running 'round in circles
But it's hip to be square
Tonight's special's paranoia with a side of despair

Riff B:
And what a what a what a what a what a what a pretty child I find

Main Riff

Riff B:
Teenage alcoholics can be oh so entertaining when they drive

Main Riffx4

Solo with Main Riff

G line with Main Riffx6:
'Cause turning people into product is easy
Turning idiots into stars is easier
The robots and cockroaches are going to be the only survivors

Riff B with B linex4:
Destroying the minds with our sights and our sounds
And this is no time for fucking around
You can't be sure if you are going up or down
Expectations go out the window
When Mr. Woman comes to town

Main Riff x4

Riff Bx4
You can't be sure if you are going up or down
You can't be sure if you are going up or down
You can't be sure if you are going up or down
Expectations go out the window
When Mr. Woman comes to town


Share "Mr Woman" by Electric Six


TOP 10 TABS

FRESH NEW TABS

ALL ARTISTS
artist wiki

mp3bear.com
song lyrics / contact us / privacy policy / tabspace toolbar
Copyright © 2004 - 2014 TabSpace.com - All Rights Reserved.
song: mr woman guitar tabs by electric six

0.022