:: Guitar & Bass Tabs Make Home Page
A B C D E F G H I J K L M N O P Q R S T U V W X Y Z #

  for    

On TABSPACE
Info About This Tab
Artist: Panda
Tab Type: Guitar
Difficulty: intermediate
Tuning: Half-Step Down
Rate This Tab!
Pues aqui les dejo la tab para el solo de muñeca version sinfonia soledad 100% sacado de 
y perfecto por erkuden (erkudensyn@hotmail.com)

 Muñeca [Sinfonía Soledad]


                                        Pxndx

Tienes q escuchar bn el tapping para sacarlo al 100%


     E             E  E  E  E  E  E  E
E||--x-------------x--x-----x--x--x-----|
B||--x-------------x--x-----x--x--x-----|
G||--x-------------x--x-----x--x--x-----|
D||--x-------------x--x-----x--x--x-----|
A||-------------------------------------|
E||-------------------------------------|


    TAB BY ERKUDEN!
    Q.            Q.     Q
------------------------------|
------------------9-----------|
--/10--------------------8----|
------------------------------|
------------------------------|
------------------------------|


  E   E.   E.   Q.      E
---------------------------|
---------------------------|
--L--10p---8---------------|
---------------11------11--|
---------------------------|
---------------------------|


   E.   S   Q.      Q.
---------------------------|
---------------------------|
-------10s-11------10------|
---L-----------------------|
---------------------------|
---------------------------|


    Q.     Q.     Q
-----------------------|
-----------9-----------|
--/10-------------8----|
-----------------------|
-----------------------|
-----------------------|


  E   E.   E.   Q.     S   S
-----------------------------|
-----------------------9s-11-|
--L--10p---8-----------------|
---------------11------------|
-----------------------------|
-----------------------------|


   Q     E.  E.  E.  E.
-------------------------|
---L----11---9---9---7---|
-------------------------|
-------------------------|
-------------------------|
-------------------------|


    Q.     Q.     Q
-----------------------|
-----------9-----------|
--/10-------------8----|
-----------------------|
-----------------------|
-----------------------|


  E   E.   E.   Q.     S   S
-----------------------------|
-----------------------9s-11-|
--L--10p---8-----------------|
---------------11------------|
-----------------------------|
-----------------------------|


   Q     E.  E.  E.  E.
-------------------------|
---L----11---9---9---7---|
-------------------------|
-------------------------|
-------------------------|
-------------------------|


   E.  E.  E.   E.   E.  S
-------8---9-------------8-|
---------------------------|
--10-----------11---10-----|
---------------------------|
---------------------------|
---------------------------|


  E  E.   E.   E.  E.  E
--L--9-------------8---9--|
--------------------------|
---------11---10----------|
--------------------------|
--------------------------|
--------------------------|


  S   E.   E.  E.  E.  E.
--L-/11---11---9---9-------|
---------------------------|
---------------------------|
---------------------------|
---------------------------|
---------------------------|


  E.   E.  E.    E  E.   S S
------------------------------|
--------------------9b---L-9~-|
--8b---L---8br---6------------|
------------------------------|
------------------------------|
------------------------------|


  E.  E.   E.    S  Q.
----------------------------|
--L-------14b----L-14~------|
----------------------------|
----------------------------|
----------------------------|
----------------------------|


  E.   E.    S  Q.      S. S.
-----------------------------|
-----------------------------|
------13b----L-13------13-11-|
-----------------------------|
-----------------------------|
-----------------------------|


   S. S. S. S.  E.   S. S. S. S. S
-----------------------------------|
-----------------------------------|
--10-11-10-------------------------|
-----------11s-13---13-11-10-11-10-|
-----------------------------------|
-----------------------------------|


   T  S.  E.   S. S.S.  S.S. S. S. T
-------------------------------------|
-------------------------------------|
-------------------------------------|
---L---------------------------------|
-----11s-13---13-11-9--11-9--8--9--8-|
-------------------------------------|


  T.  S.S. S. S. S. S. Q.        X
-----------------------------------|
-----------------------------------|
-----------------------------------|
-----------------------------------|
--L--11-9--8--9--8--6--4\~---------|
--------------------------------14-|


   S  S. S. S. S. S. S. S. S. S. S.
-----------------------------------|
--------------------------------16-|
-----------------------15-17-18----|
--------------15-16-18-------------|
--------14-16----------------------|
---L-16----------------------------|


   S. S. S. S. S. S. S. S. S. S. S
-----------------------------------|
--18-16----------------------14-16-|
--------18-17-18-17-13-15-17-------|
-----------------------------------|
-----------------------------------|
-----------------------------------|


         T   T  T  T   T  T  T   T  T  T   T
   T. S. S   S  S  S   S  S  S   S  S  S   S
--------13p-11p-9-13p-11p-9-13p-11p-9-13p-11--|p
---L-18---------------------------------------|
----------------------------------------------|
----------------------------------------------|
----------------------------------------------|
----------------------------------------------|


  T  T  T T  T  T T  T  T T  T  T T  T  T T
  S  S  S S  S  S S  S  S S  S  S S  S  S S
--9-13-11-9-15-11-9-13-11-9-15-11-9-13-11-9-|
--------------------------------------------|
--------------------------------------------|
--------------------------------------------|
--------------------------------------------|
--------------------------------------------|


   T  T T  T  T T  T  T T  T  T
   S  S S  S  S S  S  S S  S  S  S. S. S. T
--15-11-9-13-11-9-15-11-9-13-11-------------|
--------------------------------------------|
--------------------------------15-17-15-13-|
--------------------------------------------|
--------------------------------------------|
--------------------------------------------|

  S.   H.            E      T
------------------------|
------------------------|
--L--/13~---------------|
------------------------|
------------------------|
------------------------|


Share "Mueca Solo" by Panda


TOP 10 TABS

FRESH NEW TABS

ALL ARTISTS
artist wiki

mp3bear.com
song lyrics / contact us / privacy policy / tabspace toolbar
Copyright © 2004 - 2014 TabSpace.com - All Rights Reserved.
song: mueca solo guitar tabs by panda

0.01