:: Guitar & Bass Tabs Make Home Page
A B C D E F G H I J K L M N O P Q R S T U V W X Y Z #

  for    

On TABSPACE
Info About This Tab
Artist: Killswitch Engage
Tab Type: Guitar
Tuning: Drop C
Rate This Tab!
Some of its off, I'm pretty sure the interlude's are but its a base. Any improvements 
me at fixiation_on_the_darkness@hotmail.co.uk

My Curse  Killswitch Engage

Intro Lead
D--------------------------------------------------------------------------|
A------------10------------------10-----------------6---------------6------|
F----10----------10------10----------10-------5--------5------5--------5---|
C-8------8------------8------8-------------8-----8--------8------8---------|
G--------------------------------------------------------------------------|
C--------------------------------------------------------------------------|

D----------------------------------------------------------------|
A----------6---------------5--6------------6---------------5--6--|
F----5--------5------5---------------5--------5------5-----------|
C-7-----7---------7-----7---------7-----7---------7-----7--------| X2
G----------------------------------------------------------------|
C----------------------------------------------------------------|

Intro Rythem
D-8---5---5----|
A-10--8---6----|
F-10--7---7----|
C-8---5---8----|
G-8---5---5----|
C-8---5---0----| x 2

Chorus Lead
D--------------------------------------------------------------------------|
A------------10------------------10-----------------6---------------6------|
F----10----------10------10----------10-------5--------5------5--------5---|
C-8------8------------8------8-------------8-----8--------8------8---------|
G--------------------------------------------------------------------------|
C--------------------------------------------------------------------------|

D----------------------------------------------------------------|
A----------6---------------5--6------------6---------------5--6--|
F----5--------5------5---------------5--------5------5-----------|
C-7-----7---------7-----7---------7-----7---------7-----7--------| X2
G----------------------------------------------------------------|
C----------------------------------------------------------------|

Chorus Rythem
D------8-------5-------5----|
A------10------8-------6----|
F------10------7-------7----|
C------8-------5-------8----|
G-8888-8--5555-5--0000-5----|
C-8888-8--5555-5--0000-0----| x 2
  ....    ....    ....

Verse
D----------------------------------------------|
A----------------------------------------------|
F----------------------------------------------|
C----------------------------------------------|
G-5-------------------------------5------------|
C--0-0-3-0-0-5/6-0-0-5-0-0-3p0-3/5-5-4-3-0-3-4-| x9
   . .   . .     . .   . .
Pre-Chorus
D------------------------------------------------------------------|
A------------------------------------------------------------------|
F------------------------------------------------------------------|
C------------------------------------------------------------------|
G-000-000-000-000-------------------000-000-000-000--5-------------|
C-000-000-000-000-3p0-0000-3p0-0000-000-000-000-000-5-5-4-3-0-3-4--|
  ... ... ... ...     ....     .... ... ... ... ...

Pre-Chorus
D-----------------------------------------------------------------------|
A-----------------------------------------------------------------------|
F-----------------------------------------------------------------------|
C-----------------------------------------------------------------------|
G-000-000-000-000-------------------000-000-000-000--5---------5--------|
C-000-000-000-000-3p0-0000-3p0-0000-000-000-000-000-5-5-4-3-0-5-5-4-3-0-|
  ... ... ... ...     ....     .... ... ... ... ...

Chorus Lead
D--------------------------------------------------------------------------|
A------------10------------------10-----------------6---------------6------|
F----10----------10------10----------10-------5--------5------5--------5---|
C-8------8------------8------8-------------8-----8--------8------8---------|
G--------------------------------------------------------------------------|
C--------------------------------------------------------------------------|

D----------------------------------------------------------------|
A----------6---------------5--6------------6---------------5--6--|
F----5--------5------5---------------5--------5------5-----------|
C-7-----7---------7-----7---------7-----7---------7-----7--------| X2
G----------------------------------------------------------------|
C----------------------------------------------------------------|

Chorus Rythem
D------8-------5-------5----|
A------10------8-------6----|
F------10------7-------7----|
C------8-------5-------8----|
G-8888-8--5555-5--0000-5----|
C-8888-8--5555-5--0000-0----| x 2
  ....    ....    ....

Verse
D----------------------------------------------|
A----------------------------------------------|
F----------------------------------------------|
C----------------------------------------------|
G-5-------------------------------5------------|
C--0-0-3-0-0-5/6-0-0-5-0-0-3p0-3/5-5-4-3-0-3-4-| x4
   . .   . .     . .   . .



Pre-Chorus
D------------------------------------------------------------------|
A------------------------------------------------------------------|
F------------------------------------------------------------------|
C------------------------------------------------------------------|
G-000-000-000-000-------------------000-000-000-000--5-------------|
C-000-000-000-000-3p0-0000-3p0-0000-000-000-000-000-5-5-4-3-0-3-4--|
  ... ... ... ...     ....     .... ... ... ... ...

Pre-Chorus
D-----------------------------------------------------------------------|
A-----------------------------------------------------------------------|
F-----------------------------------------------------------------------|
C-----------------------------------------------------------------------|
G-000-000-000-000-------------------000-000-000-000--5---------5--------|
C-000-000-000-000-3p0-0000-3p0-0000-000-000-000-000-5-5-4-3-0-5-5-4-3-0-|
  ... ... ... ...     ....     .... ... ... ... ...

Chorus Lead
D--------------------------------------------------------------------------|
A------------10------------------10-----------------6---------------6------|
F----10----------10------10----------10-------5--------5------5--------5---|
C-8------8------------8------8-------------8-----8--------8------8---------|
G--------------------------------------------------------------------------|
C--------------------------------------------------------------------------|

D----------------------------------------------------------------|
A----------6---------------5--6------------6---------------5--6--|
F----5--------5------5---------------5--------5------5-----------|
C-7-----7---------7-----7---------7-----7---------7-----7--------| X2
G----------------------------------------------------------------|
C----------------------------------------------------------------|

Chorus Rythem
D------8-------5-------5----|
A------10------8-------6----|
F------10------7-------7----|
C------8-------5-------8----|
G-8888-8--5555-5--0000-5----|
C-8888-8--5555-5--0000-0----| x 2
  ....    ....    ....

Interlude 1
D-----------------------------------------------|
A-----------------------------------------------|
F-14/151515-121212-14/151515-141414-101010-999--|
C-----------------------------------------------|
G-12/131313-101010-12/131313-121212-8-8-8--777--|
C-----------------------------------------------|

D---------------------------------|
A---------------------------------|
F-14/151515-121212-14/151515-14~--|
C---------------------------------|
G-12/131313-101010-12/131313-12~--|
C---------------------------------|

Interlude 2 (Guitar 1)
D------------------------------------------------------------------|
A------------------------------------------------------------------|
F-----10-9------------10-9------------10-9------------10-9-10-9---|
C---------10-8-7-5--------10-8-7-5--------10-8-7-5--------10----10-|
G-8888------------5555------------0000------------0000-------------|
C-8888------------5555------------0000------------0000-------------| x 4
  ....            ....            ....            ....

Interlude 2 (Guitar 2)
D-----------------------------------------------------------------------------------|
A-----------------------------------------------------------------------------------|
F-----14-12-10-12-10-9----14-12-10-12-10-9----14-12-10-12-10-9----14-12-10-14-12-10-|
C-----------------------------------------------------------------------------------|
G-8888----------------5555----------------0000----------------0000------------------|
C-8888----------------5555----------------0000----------------0000------------------|
  ....            ....            ....            ....


Share "My Curse" by Killswitch Engage


TOP 10 TABS

FRESH NEW TABS

ALL ARTISTS
artist wiki

mp3bear.com
song lyrics / contact us / privacy policy / tabspace toolbar
Copyright 2004 - 2014 TabSpace.com - All Rights Reserved.
song: my curse guitar tabs by killswitch engage

0.031