:: Guitar & Bass Tabs Make Home Page
A B C D E F G H I J K L M N O P Q R S T U V W X Y Z #

  for    

On TABSPACE
Info About This Tab
Artist: Misc Television
Tab Type: Guitar
Difficulty: novice
Rate This Tab!
---------------------------------------------------
	 Outro Song - NDtitanlady

   http://www.youtube.com/user/ndtitanlady
---------------------------------------------------
Tabbed by: Justin Riray
Youtube:   http://www.youtube.com/JustinRiray
Facebook:  http://www.facebook.com/riray

Tuning: Standard (EADGBe)

Hey if anyone knows the name of this song
please let me know.
I searched for the answer all over google.

NDTitanLady is amazing! Didn't get the chance
to meet her at FG09, but maybe next year.

Check her YouTube videos out!

MAIN
e|--0--2--3--0---|
B|--1--3--3--0---|
G|--2--2--0--1---|
D|--2--0--0--2---|
A|--0--0--2--2---|
E|--------3--0---|

SOLO
e|------7--------------------5----------------------|
B|-8-10----8-7-8--------5--7---8--------5-7-8-7-----|
G|----------------4-5-7----------7--5-7-------------|
D|--------------------------------------------------|
A|--------------------------------------------------|
E|--------------------------------------------------|

e|------7--------------------5------5-7-8-7-------5-|
B|-8-10----8-7-8--------5--7---8------------8-7-8---|
G|----------------4-5-7----------7------------------|
D|--------------------------------------------------|
A|--------------------------------------------------|
E|--------------------------------------------------|

=====================================================


Share "Ndtitanlady - Ending Song" by Misc Television


TOP 10 TABS

FRESH NEW TABS

ALL ARTISTS
artist wiki

mp3bear.com
song lyrics / contact us / privacy policy / tabspace toolbar
Copyright 2004 - 2014 TabSpace.com - All Rights Reserved.
song: ndtitanlady - ending song guitar tabs by misc television

0.024