:: Guitar & Bass Tabs Make Home Page
A B C D E F G H I J K L M N O P Q R S T U V W X Y Z #

  for    

On TABSPACE
Info About This Tab
Artist: Ebony Tears
Tab Type: Guitar
Rate This Tab!
/---------------------------------------------------------------------------/
/    The following is the author's own interpretation of the song, to be    /
/                     used for private use and studying                     /
/---------------------------------------------------------------------------/
EBONY TEARS - Nectars Of Eden 

Transcribed by: Yoav Michaeli (yoavm@actcom.co.il)
Added To Ultimate-Guitar.com by Mikhailo (mikhailo_@mail.ru)

Tune Half Step Down (Eb)

Violin Intro (For Guitar)

|----------------------------------------------------------------------------|
|------9-10~---9--------------------------9-10--9--12-10-9-10-9h10p9---9-----|
|-9-11----------11-9--------11--9~---9-11--------11------------------11------|
|--------------------11---12--12---------------------------------------------|
|----------------------------------------------------------------------------|
|----------------------------------------------------------------------------|
|                                                                            |
|----------------------------------------------------------------------------|
|----------------------------------------------------------------------------|
|---------11---------6---67---7-9-----9-----11----116---6---7---7------9-----|
|---------11--11-----6--6-7--7--9---9-------11--11--6--6----7----7-----9-----|
|---------9------9---4-4--5-5---7-7---------9--9----4-4-----5--5-------7-----|
|------------------------------------------------------------------------5-4-|

00:15 - Distorted Guitars

|--------------|
|--------------|
|-77-77-99-----|
|-77-77-99-----|
|-55-55-77-----|
|--------------|

Riff A (00:16)

|----------------------------------------------------------------------------|
|------9-10~---9--------------------------9-10--9--12-10-9-10-9h10p9---9-----|
|-9-11----------11-9--------11--9~---9-11--------11------------------11------|
|--------------------11---12--12---------------------------------------------|
|----------------------------------------------------------------------------|
|----------------------------------------------------------------------------|
|                                                                            |
|----------------------------------------------------------------------------|
|----------------------------------------------------------------------------|
|--------11-1111-----6-66-7-77--9-99-------11-1111--6--66--7-77------9-(1413)|
|--------11-1111-----6-66-7-77--9-99-------11-1111--6--66--7-77------9-(1413)|
|--------9--9-9------4-44-5-55--7-77-------9--9-9---4--44--5-55------7-(1211)|
|----------------------------------------------------------------------------|

Riff B(a) (00:35)

|-------------------------------------------------------------------------|
|-------------------------------------------------------------------------|
|----------------------------4-6-7-6-4------------------------------------|
|--4-4--4-6-7-6-4-----7-7--7-----------7-6--------------------------------|
|-----------------7-4-----------------------------------------------------|
|-------------------------------------------------------------------------|
|                                                                         |
|-------------------------------------------------------------------------|
|-------------------------------------------------------------------------|
|-------------------------------------------------------------------------|
|--4444-4-4-----------7777-------2-2--------------------------------------|
|--4444-4-4-----------7777-------2-2--------------------------------------|
|--2222-2-2-----------5555-------0-0--------------------------------------|

Riff B(b) (00:46)

|-------------------------------------------------------------------------|
|-------------------------------------------------------------------------|
|-------------------------4-6--7-6-4--------------------------------------|
|---"4----6-7--"4----6-7---7------------7-6-------------------------------|
|-------------------------------------------------------------------------|
|-------------------------------------------------------------------------|

|-------------------------------------------------------------------------|
|-------------------------------------------------------------------------|
|-------------------------------------------------------------------------|
|--4444444-4444444------777777--2-2---------------------------------------|
|--4444444-4444444------777777--2-2---------------------------------------|
|--2222222-2222222------555555--0-0---------------------------------------|

Verse Riff (00:56)

|-------------------------------------------------------------------------|
|-------------------------------------------------------------------------|
|---------..--------..-------..-------------------------------------------|
|--4--4---44---4-4--44--7-7--77--2-2--------------------------------------|
|--4--4---44---4-4--44--7-7--77--2-2--------------------------------------|
|--2--2---22---2-2--22--5-5--55--0-0--------------------------------------|

Chorus Riff (1:40)

|-------------------------------------------------------------------------|
|-------*-----------------------------------------------------------------|
|-------------------------------------------------------------------------|
|--77-7-1111-11-77-7-1111-111111-77-7-1111-11-99-9--111111----------------|
|--55-5-9-9--9--55-5-9-9--9-9-9--55-5-9-9--9--77-7--9-9-9-----------------|
|-------------------------------------------------------------------------|
|                                                                         |
|-------------------------------------------------------------------------|
|---------------------------------------------------------6-4-------------|
|----------------------------------------------------4-6-7----6-7---------|
|-------------------------------------------------------------------------|
|-------------------------------------------------------------------------|
|-------------------------------------------------------------------------|

* - 11, not 1

Riff C (2:11)

|-----------------------Tremolo-Picking-----------------------------------|
|------------7-5----------------------------------------------------------|
|---------6------7-6-4----------------------------------------------------|
|-4---6-7--------------7--------------------------------------------------|
|-------------------------------------------------------------------------|
|-------------------------------------------------------------------------|
|                                                                         |
|-------------------------------------------------------------------------|
|-------------------------------------------------------------------------|
|-------------------------------------------------------------------------|
|-------------------7777777-2222222---------------------------------------|
|-4--4--4-5--5--5-2-7777777-2222222---------------------------------------|
|--22-22-2-22-22----5555555-0000000---------------------------------------|

Violin Solo (For Guitar) (2:38)

|------------9-9/12--9-21~-----------------------------12-1919-16-21-21fb-|
|-10~------10---------------/12-10-9-9----------9-10-12-------------------|
|-----11~------------------------------11-9-11~---------------------------|
|-------------------------------------------------------------------------|
|-------------------------------------------------------------------------|
|-------------------------------------------------------------------------|

|--------------10~--------------------------------------------------------|
|------------10----14-12-10---10-12-14------------------------------------|
|-11~--11-13---------------------------13~--13~---------------------------|
|-------------------------------------------------------------------------|
|-------------------------------------------------------------------------|
|-------------------------------------------------------------------------|
|                                                                         |
|-------------------------------------------------------------------------|
|-------------------------------------------------------------------------|
|-------------------------------------------------------------------------|
|-44-4-44-4-----777-7-7-7-----44-4-44-4-2--2------------------------------|
|-44-4-44-4-----777-7-7-7-----44-4-44-4-2--2------------------------------|
|-22-2-22-2-----555-5-5-5-----22-2-22-2-0--0------------------------------|


Song Structue:
--------------
Violin Intro
Riff A
Riff B(a)
Riff B(b)
Verse Riff
Riff B(b)
Riff B(a)
Chorus Riff
Riff B(b)
Riff C
Violin Intro + Solo
Babe Singing
Riff C
Chrous Riff
Riff B(b)


Share "Nectars Of Eden" by Ebony Tears


TOP 10 TABS

FRESH NEW TABS

ALL ARTISTS
artist wiki

mp3bear.com
song lyrics / contact us / privacy policy / tabspace toolbar
Copyright 2004 - 2014 TabSpace.com - All Rights Reserved.
song: nectars of eden guitar tabs by ebony tears

0.014