:: Guitar & Bass Tabs Make Home Page
A B C D E F G H I J K L M N O P Q R S T U V W X Y Z #

  for    

On TABSPACE
Info About This Tab
Artist: Misc Television
Tab Type: Guitar
Difficulty: novice
Rate This Tab!
e------------------------------------------------------------------------|
b------------------------------------------------------------------------|
g---9--7-7---------------------------------------------------------------|
d---9--7-7--7-7--9--9----------------------------------------------------| x3
a---7--5-5--7-7--9--9----------------------------------------------------|
E-----------5-5--7--7----------------------------------------------------|

e------------------------------------------------------------|
b------------------------------------------------------------|
g------------------------------------------------------------|
d--7-7-7-7-7-7-7-7-----9-9-9-9-9-9-9-9-----------------------|
a--7-7-7-7-7-7-7-7-----9-9-9-9-9-9-9-9-----------------------|
E--5-5-5-5-5-5-5-5-----7-7-7-7-7-7-7-7-----------------------|

e------------------------------------------------------------|
b------------------------------------------------------------|
g----9-------------------------------------------------------|x4
d----9------7-----9----7-------------------------------------|
a----7------7-----9----7-------------------------------------|
E-----------5-----7----5-------------------------------------|

e----------------------------------------------------------------------|
b----------------------------------------------------------------------|
g---9-9-9-9--7-7-7-7------------------9--------------------------------|
d---9-9-9-9--7-7-7-7--7-7-7-7---9-9---9--------------------------------|
a---7-7-7-7--5-5-5-5--7-7-7-7---9-9---7--------------------------------|
E---------------------5-5-5-5---7-7------------------------------------|

well thats it it sounds abour right.


Share "Neds Declassified" by Misc Television


TOP 10 TABS

FRESH NEW TABS

ALL ARTISTS
artist wiki

mp3bear.com
song lyrics / contact us / privacy policy / tabspace toolbar
Copyright 2004 - 2014 TabSpace.com - All Rights Reserved.
song: neds declassified guitar tabs by misc television

0.021