:: Guitar & Bass Tabs Make Home Page
A B C D E F G H I J K L M N O P Q R S T U V W X Y Z #

  for    

On TABSPACE
Info About This Tab
Artist: Fear
Tab Type: Bass
Rate This Tab!
Intro/Chorus "...if you like saxophones!"
G|----------------------|
D|----------------------|
A|----------6~-5~-7~-6~-|
E|-5-5-5-5--------------|

Verse/Sax solos
G|-----------------------------|
D|---------7-7-----------------|
A|-------------5-5-6-6-5-5-6-6-|
E|-5-5-5-5---------------------|

End
G|--------------|
D|-----7~-------|
A|--------5~-6~-|
E|-5~-----------|




Share "New Yorks Alright If You Like Saxophone" by Fear


TOP 10 TABS

FRESH NEW TABS

ALL ARTISTS
artist wiki

mp3bear.com
song lyrics / contact us / privacy policy / tabspace toolbar
Copyright 2004 - 2014 TabSpace.com - All Rights Reserved.
song: new yorks alright if you like saxophone bass tabs by fear

0.013