:: Guitar & Bass Tabs Make Home Page
A B C D E F G H I J K L M N O P Q R S T U V W X Y Z #

  for    

On TABSPACE
Info About This Tab
Artist: Remady Pr
Tab Type: Guitar
Difficulty: novice
Rate This Tab!
                        No Superstar intro

[------7-12-7-12-10-7-10-10-7-10-10---10-10---10-9----9-9-10-12-|
[----8------------------------------7-------7------10-----------|
[--9------------------------------------------------------------|
[---------------------------------------------------------------|
[---------------------------------------------------------------|
[---------------------------------------------------------------|

                              or
[------12--12-10--10-10--10-10--10-10--10-9--9-9-10-12--------|
[----12--12-----12-----12------------------10-----------------|
[--12-------------------------11-----11-----------------------|
[14-----------------------------------------------------------|
[-------------------------------------------------------------|
[-------------------------------------------------------------|

Repeat this intro 6x .

This is my first tab so be kind ^^.


Share "No Superstar Intro" by Remady Pr


TOP 10 TABS

FRESH NEW TABS

ALL ARTISTS
artist wiki

mp3bear.com
TabSpace.com / contact us / privacy policy / tabspace toolbar
Copyright 2004 - 2016 TabSpace.com - All Rights Reserved.
song: no superstar intro guitar tabs by remady pr

0.002