:: Guitar & Bass Tabs Make Home Page
A B C D E F G H I J K L M N O P Q R S T U V W X Y Z #

  for    

On TABSPACE
Info About This Tab
Artist: 36 Crazyfists
Tab Type: Guitar
Rate This Tab!
Pretty.

TUNING: DROP C

KEY:
h Hammer On
p Pull Off
/ Slide
~ Let Ring
X Deaden String

VERSE X4
|---------------------------------------------|
|-----0----------0----------0----------0------|
|---5---4------5---4------5---0------5--------|
|-7----------7----------3----------3-----2----|
|---------------------------------------------|
|---------------------------------------------|
  ~~~~~~~~~~~~~~~~~~~~~~~~~~~~~~~~~~~~~~~~~~~

PRE-CHORUS (both X2)
|-------------------------------------------------------------------|
|-------------------------------------------------------------------|
|-------------------------------------------------------------7-----|
|-5/7-7-7-7-7-7-7-10p7-7-7-7-7-7-7-5/7-7-7-7-7-7-7-10--7-7-10---10--|
|-------------------------------------------------------------------|
|-------------------------------------------------------------------|
      ...........      ...........     ...........     ...

|-------------------------------------------------------------------|
|-------------------------------------------------------------------|
|-------------------------------------------------------------------|
|-5/7-7-7-7-7-7-7-10p7-7-7-7-7-7-7-5/7-7-7-7-7-7-7-10101010-5-5-5-5-|
|-------------------------------------------------------------------|
|-------------------------------------------------------------------|
      ...........      ...........     ............................

|------------|
|-----0------|
|---5---4----|
|-7----------|
|------------|
|------------|
  ~~~~~~~~~~

CHORUS
|---------------------------------------------|
|---------------------------------------------|
|----------5-4-4-5-4-4-----------5-4-5-7-5-4--|
|-3-3-3-3--X-X-X-X-X-X--2-2-2-2--X-X-X-X-X-X--|
|-3-3-3-3--3-2-2-3-2-2--2-2-2-2--3-2-3-5-3-2--|
|-3-3-3-3---------------2-2-2-2---------------|

|---------------------------------------------|
|---------------------------------------------|
|----------5-4-4-5-4-4-----------5-4-5-7-5-4--|
|-3-3-3-3--X-X-X-X-X-X--5-5-5-5--X-X-X-X-X-X--|
|-3-3-3-3--3-2-2-3-2-2--5-5-5-5--3-2-3-5-3-2--|
|-3-3-3-3---------------5-5-5-5---------------|

VERSE X3
|---------------------------------------------|
|-----0----------0----------0----------0------|
|---5---4------5---4------5---0------5--------|
|-7----------7----------3----------3-----2----|
|---------------------------------------------|
|---------------------------------------------|
  ~~~~~~~~~~~~~~~~~~~~~~~~~~~~~~~~~~~~~~~~~~~

PRE-CHORUS (both X2)
|-------------------------------------------------------------------|
|-------------------------------------------------------------------|
|-------------------------------------------------------------7-----|
|-5/7-7-7-7-7-7-7-10p7-7-7-7-7-7-7-5/7-7-7-7-7-7-7-10--7-7-10---10--|
|-------------------------------------------------------------------|
|-------------------------------------------------------------------|
      ...........      ...........     ...........     ...

|-------------------------------------------------------------------|
|-------------------------------------------------------------------|
|-------------------------------------------------------------------|
|-5/7-7-7-7-7-7-7-10p7-7-7-7-7-7-7-5/7-7-7-7-7-7-7-10101010-5-5-5-5-|
|-------------------------------------------------------------------|
|-------------------------------------------------------------------|
      ...........      ...........     ............................

|------------|
|-----0------|
|---5---4----|
|-7----------|
|------------|
|------------|
  ~~~~~~~~~~

CHORUS (both X2)
|---------------------------------------------|
|---------------------------------------------|
|----------5-4-4-5-4-4-----------5-4-5-7-5-4--|
|-3-3-3-3--X-X-X-X-X-X--2-2-2-2--X-X-X-X-X-X--|
|-3-3-3-3--3-2-2-3-2-2--2-2-2-2--3-2-3-5-3-2--|
|-3-3-3-3---------------2-2-2-2---------------|

|---------------------------------------------|
|---------------------------------------------|
|----------5-4-4-5-4-4-----------5-4-5-7-5-4--|
|-3-3-3-3--X-X-X-X-X-X--5-5-5-5--X-X-X-X-X-X--|
|-3-3-3-3--3-2-2-3-2-2--5-5-5-5--3-2-3-5-3-2--|
|-3-3-3-3---------------5-5-5-5---------------|

BRIDGE
|---------------------------------------------|
|------------------5--------------------------|
|-5-------------------------0-----------------|
|-3--------------2--------2---2--------2-0----|
|-3------------3------------------------------|
|-3----------3----------3----------2-0--------|
  ~~~~~~~~~~~~~~~~~~~~~~~~~~~~~~~~~~~~~~~~~~~

X2
|---------------------------------------------|
|-------6----------5--------------------------|
|---------------------------0-----------------|
|-----3----------2--------2---2--------2-0----|
|--------------3------------------------------|
|-0-3--------3----------3----------2-0--------|
  ~~~~~~~~~~~~~~~~~~~~~~~~~~~~~~~~~~~~~~~~~~~

CHORUS (both X2)
|---------------------------------------------|
|---------------------------------------------|
|----------5-4-4-5-4-4-----------5-4-5-7-5-4--|
|-3-3-3-3--X-X-X-X-X-X--2-2-2-2--X-X-X-X-X-X--|
|-3-3-3-3--3-2-2-3-2-2--2-2-2-2--3-2-3-5-3-2--|
|-3-3-3-3---------------2-2-2-2---------------|

|---------------------------------------------|
|---------------------------------------------|
|----------5-4-4-5-4-4-----------5-4-5-7-5-4--|
|-3-3-3-3--X-X-X-X-X-X--5-5-5-5--X-X-X-X-X-X--|
|-3-3-3-3--3-2-2-3-2-2--5-5-5-5--3-2-3-5-3-2--|
|-3-3-3-3---------------5-5-5-5---------------|

EXIT X8
|---------------------------------------------|
|-----0----------0----------0----------0------|
|---5---4------5---4------5---0------5--------|
|-7----------7----------3----------3-----2----|
|---------------------------------------------|
|---------------------------------------------|
  ~~~~~~~~~~~~~~~~~~~~~~~~~~~~~~~~~~~~~~~~~~~


Share "Northern November" by 36 Crazyfists


TOP 10 TABS

FRESH NEW TABS

ALL ARTISTS
artist wiki

mp3bear.com
TabSpace.com / contact us / privacy policy / tabspace toolbar
Copyright 2004 - 2016 TabSpace.com - All Rights Reserved.
song: northern november guitar tabs by 36 crazyfists

0.005