:: Guitar & Bass Tabs Make Home Page
A B C D E F G H I J K L M N O P Q R S T U V W X Y Z #

  for    

On TABSPACE
Info About This Tab
Artist: Electric Six
Tab Type: Guitar
Rate This Tab!
electric 6 - nuclear war (on the dancefloor)
this band are a total party band, get the CD to get drunk + dance to!

the song starts with feedback and then slide up to..
0:03 - 0:06
e------------------------------------------------
b------------------------------------------------
g------------------------------------------------
d-7/11-11-11-11-11-11-11-11-11-11-11-11-11-11/14\7--
a-7/11-11-11-11-11-11-11-11-11-11-11-11-11-11/14\7--
e-5/9--9--9--9--9--9--9--9--9--9--9--9--9--9-/12\5--


then you play this 8 times
0:06 - 0:31
e-----------------------------------------
b-----------------------------------------
g-9h11-11-9-11-11-9-----------------------
d-------------------11-11-11-11-11-11-11--
a-------------------11-11-11-11-11-11-11--
e-------------------9--9--9--9--9--9--9---

then this twice
0:31 - 0:37
e-----------------------------------------
b-----------------------------------------
g-----------------------------------------
d------7--------9--------10--------11-----
a------7--------9--------10--------11-----
e--5-5-5-5--7-7-7-7--8-8-8--8--9-9-9--9---
PM ...   .  ...   .  ...    .  ...    .

then this twice
0:37 - 0:43
e---------------------------------------------
b---------------------------------------------
g---------------------------------------------
d-7-7-7-7--9-9-9-9--10-10-10-10--11-11-11-11--
a-7-7-7-7--9-9-9-9--10-10-10-10--11-11-11-11--
e-5-5-5-5--7-7-7-7--8--8--8--8---9--9--9--9---

then this once
0:43 - 0:46
e--------------------------------------------
b--------------------------------------------
g--------------------------------------------
d-11-11-11-11-11-11-11-11--11-9--------------
a-11-11-11-11-11-11-11-11--11-9--------------
e-9--9--9--9--9--9--9--9---9--7--------------

play this 4 times
0:46 - 0:59
e-----------------------------------------
b-----------------------------------------
g-9h11-11-9-11-11-9-----------------------
d-------------------11-11-11-11-11-11-11--
a-------------------11-11-11-11-11-11-11--
e-------------------9--9--9--9--9--9--9---

then play this 4 times
0:59 - 1:11
e-----------------------------------------
b--------------------12^------------------
g-9h11-11-9-11-11-9-----------------------
d-----------------------------------------
a-----------------------------------------
e-----------------------------------------

you play the first bit of the main riff but then instead of playing the chord after it,
you play 12 on the b string with a wah wah while bending

then end the song by playing this once

e-----------------------------------------
b-----------------------------------------
g-----------------------------------------
d------7--------9--------10--------11-----
a------7--------9--------10--------11-----
e--5-5-5-5--7-7-7-7--8-8-8--8--9-9-9--9---
PM ...   .  ...   .  ...    .  ...    .

DANIEL ALEXANDER REID


Share "Nuclear War On The Dancefloor" by Electric Six


TOP 10 TABS

FRESH NEW TABS

ALL ARTISTS
artist wiki

mp3bear.com
song lyrics / contact us / privacy policy / tabspace toolbar
Copyright 2004 - 2014 TabSpace.com - All Rights Reserved.
song: nuclear war on the dancefloor guitar tabs by electric six

0.011