:: Guitar & Bass Tabs Make Home Page
A B C D E F G H I J K L M N O P Q R S T U V W X Y Z #

  for    

On TABSPACE
Info About This Tab
Artist: Daughters
Tab Type: Guitar
Rate This Tab!
E||-------------------------|-------------------------|
B||--9--10--11--12--13--12--|--11--10--9--10--11--12--|
G||-------------------------|-------------------------|
D||--7--8---9---10--11--10--|--9---8---7--8---9---10--|
A||-------------------------|-------------------------|
E||-------------------------|-------------------------|


2x
|---12/-10--12/-10--9/-10---||--12/-10--12/-10--9----|
|---------------------------||-----------------------|
|*--10/-8---10/-8---7/-8---*||--10/-8---10/-8---7----|
|*-------------------------*||-----------------------|
|---------------------------||-----------------------|
|---------------------------||-----------------------|


6x
|---13----------14--13----------12---||---12/-10--12/-10--9/-10---||
|-------14--15----------14--15-------||---------------------------||
|*--11----------12--11----------10--*||*--10/-8---10/-8---7/-8---*||
|*------12--13----------12--13------*||*-------------------------*||
|------------------------------------||---------------------------||
|------------------------------------||---------------------------||



--12/-10--12/-10--9----||---------------------------------------|
-----------------------||---14/---14/---14/---12/---12/---12/---|
--10/-8---10/-8---7----||*--------------------------------------|
-----------------------||*--12/---12/---12/---10/---10/---10/---|
-----------------------||---------------------------------------|
-----------------------||---------------------------------------|



------------------------------------||--------------------------||
--11/---11/---11/---9/---9/---9/----||---17---17-17r---15--17---||
-----------------------------------*||*------------------------*||
--9/----9/----9/----7/---7/---7/---*||*--15---15-15r---13/-15--*||
------------------------------------||--------------------------||
------------------------------------||--------------------------||


6x
--------------------------||---13----------14--13----------12---||
---19---19-19r---17--19---||-------14--15----------14--15-------||
*------------------------*||*--11----------12--11----------10--*||
*--17---17-17r---15/-17--*||*------12--13----------12--13------*||
--------------------------||------------------------------------||
--------------------------||------------------------------------||


6x
--13----------14--13------------||---13----------14--13----------12---||
------14--15----------14--15----||-------14--15----------14--15-------||
--11----------12--11------------||*--11----------12--11----------10--*||
------12--13----------12--13----||*------12--13----------12--13------*||
--------------------------------||------------------------------------||
--------------------------------||------------------------------------||



--13----------14--13------------||
------14--15----------14--15----||
--11----------12--11------------||
------12--13----------12--13----||
--------------------------------||
--------------------------------||

www.wearedaughters.com


Share "Nurse Would You Please Prep The Patient For Sexual Doctor" by Daughters


TOP 10 TABS

FRESH NEW TABS

ALL ARTISTS
artist wiki

mp3bear.com
song lyrics / contact us / privacy policy / tabspace toolbar
Copyright 2004 - 2014 TabSpace.com - All Rights Reserved.
song: nurse would you please prep the patient for sexual doctor guitar tabs by daughters

0.009