:: Guitar & Bass Tabs Make Home Page
A B C D E F G H I J K L M N O P Q R S T U V W X Y Z #

  for    

On TABSPACE
Info About This Tab
Artist: Faber Drive
Tab Type: Guitar
Difficulty: novice
Rate This Tab!
Obvious - Faber Drive

Album: Seven Second Surgery
Tabbed by: Henry Lu
Email: henrylu93@hotmail.com

This song tabbed out by request. All in a day's work. Have fun, C.G.
Tell me if there are any errors

Tuning: Standard (EADGBe)

INTRO
Guitar 2
e|---------------------------------------------------------------------------|
B|---------------------------------------------------------------------------|
G|-4~--4~--4-4---------------------------------------------------------------|
D|-4~--4~--4-4-4-4--4--4---6~--6~--6-6-2-2--2--2-----------------------------|
A|-2~--2~--2-2-4-4--4--4---6~--6~--6-6-2-2--2--2-----------------------------|
E|-------------2-2--2--2---4~--4~--4-4-0-0--0--0-----------------------------|

e|---------------------------------------------------------------------------|
B|---------------------------------------------------------------------------|
G|-4~--4~--4-4-------------6~--6~--6-6-8-8--8--4-----------------------------|
D|-4~--4~--4-4-4-4--4--4---6~--6~--6-6-8-8--8--4-----------------------------|
A|-2~--2~--2-2-4-4--4--4---4~--4~--4-4-6-6--6--2-----------------------------|
E|-------------2-2--2--2-----------------------------------------------------|

Guitar 1
e|-11----11----14----14----11----11----12-11----12-11------------------------|
B|----12----12----12----12----12----12-------12-------12---------------------|
G|---------------------------------------------------------------------------|
D|---------------------------------------------------------------------------|
A|---------------------------------------------------------------------------|
E|---------------------------------------------------------------------------|

e|-11----11----14----14----11----11----12-11----12-11------------------------|
B|----12----12----12----12----9-----9--------12-------12---------------------|
G|---------------------------------------------------------------------------|
D|---------------------------------------------------------------------------|
A|---------------------------------------------------------------------------|
E|---------------------------------------------------------------------------|

VERSE 1
Guitar 2 (Optional)
e|---------------------|
B|---------------------|
G|---------------------|
D|-2------4-----6------|
A|-2-x16--4-x8--6-x8---|
E|-0------2-----4------|
   .      .     .

e|--------------------------|
B|--------------------------|
G|--------------------------|
D|-2------4-----6-----4-----|
A|-2-x16--4-x8--6-x4--4-x4--|
E|-0------2-----4-----2-----|
   .      .     .     .

Guitar 1
e|-------19------------19------------19------------19--------|
B|----------19------------19------------19------------19-----|	   (It just repeats
G|-16-16---------16-16---------16-16---------16-16-----------|	   throughout the verse)
D|-----------------------------------------------------------| x4
A|-----------------------------------------------------------|
E|-----------------------------------------------------------|
   .   .          .  .          .  .          .  .

PRECHORUS 1
Guitar 2 (optional)
e|--------------------|
B|--------------------|
G|--------------------|
D|-2------4-----6-----|
A|-2-x8---4-x8--6-x16-| x2
E|-0------2-----4-----|
   .      .     .

Guitar 1
e|---------------------------------------------------------|
B|---------------------------------------------------------|
G|-4-----11-----6-----13-----15-15-15-16~--15-16-15--------|
D|-X-x8---X-x8--X-x4---X-x4---X--X--X--X----X--X--X--------|
A|-2------9-----4-----11-----13-13-13-14~--13-14-13--------|
E|---------------------------------------------------------|
   .      .     .      

e|------------------------------------------------|
B|------------------------------------------------|
G|-4-----11-----13-----13-----15-15-15-16~--------|
D|-X-x8---X-x8---X-x4---X-x4---X--X--X--X---------|
A|-2------9-----11-----11-----13-13-13-14~--------|
E|------------------------------------------------|
   .      .     .      

CHORUS
Guitar 2
e|---------------------------------------------------------------------------|
B|---------------------------------------------------------------------------|
G|-4~--4~--4-4---------------------------------------------------------------|
D|-4~--4~--4-4-4-4--4--4---6~--6~--6-6-2-2--2--2-----------------------------|
A|-2~--2~--2-2-4-4--4--4---6~--6~--6-6-2-2--2--2-----------------------------|
E|-------------2-2--2--2---4~--4~--4-4-0-0--0--0-----------------------------|

e|---------------------------------------------------------------|
B|---------------------------------------------------------------|
G|-4~--4~--4-4-------------6~--6~--6-6-8-8--8--4-----------------|
D|-4~--4~--4-4-4-4--4--4---6~--6~--6-6-8-8--8--4-----------------| x2
A|-2~--2~--2-2-4-4--4--4---4~--4~--4-4-6-6--6--2-----------------|
E|-------------2-2--2--2-----------------------------------------|

Guitar 1
e|-11----11----14----14----11----11----12-11----12-11------------------------|
B|----12----12----12----12----12----12-------12-------12---------------------|
G|---------------------------------------------------------------------------|
D|---------------------------------------------------------------------------|
A|---------------------------------------------------------------------------|
E|---------------------------------------------------------------------------|

e|-11----11----14----14----11----11----12-11----12-11------------|
B|----12----12----12----12----9-----9--------12-------12---------|
G|---------------------------------------------------------------|
D|---------------------------------------------------------------| x2
A|---------------------------------------------------------------|
E|---------------------------------------------------------------|

VERSE 2
Guitar 2 (Optional)
e|---------------------|
B|---------------------|
G|---------------------|
D|-2------4-----6------|
A|-2-x16--4-x8--6-x8---|
E|-0------2-----4------|
   .      .     .

e|--------------------------|
B|--------------------------|
G|--------------------------|
D|-2------4-----6-----4-----|
A|-2-x16--4-x8--6-x4--4-x4--|
E|-0------2-----4-----2-----|
   .      .     .     .

Guitar 1
e|-------19------------19------------19------------19--------|
B|----------19------------19------------19------------19-----|		It just repeats
G|-16-16---------16-16---------16-16---------16-16-----------|		throughout the verse
D|-----------------------------------------------------------| x4
A|-----------------------------------------------------------|
E|-----------------------------------------------------------|
   .   .          .  .          .  .          .  .

PRECHORUS 2
Guitar 2 (optional)
e|--------------------|
B|--------------------|
G|--------------------|
D|-2------4-----6-----|
A|-2-x8---4-x8--6-x16-| x2
E|-0------2-----4-----|
   .      .     .

Guitar 1
e|---------------------------------------------------------|
B|---------------------------------------------------------|
G|-4-----11-----6-----13-----15-15-15-16~--15-16-15--------|
D|-X-x8---X-x8--X-x4---X-x4---X--X--X--X----X--X--X--------|
A|-2------9-----4-----11-----13-13-13-14~--13-14-13--------|
E|---------------------------------------------------------|
   .      .     .      

e|------------------------------------------------|
B|------------------------------------------------|
G|-4-----11-----13-----13-----15-15-15-16~--------|
D|-X-x8---X-x8---X-x4---X-x4---X--X--X--X---------|
A|-2------9-----11-----11-----13-13-13-14~--------|
E|------------------------------------------------|
   .      .     .      

CHORUS 2
Guitar 2
e|---------------------------------------------------------------------------|
B|---------------------------------------------------------------------------|
G|-4~--4~--4-4---------------------------------------------------------------|
D|-4~--4~--4-4-4-4--4--4---6~--6~--6-6-2-2--2--2-----------------------------|
A|-2~--2~--2-2-4-4--4--4---6~--6~--6-6-2-2--2--2-----------------------------|
E|-------------2-2--2--2---4~--4~--4-4-0-0--0--0-----------------------------|

e|---------------------------------------------------------------------------|
B|---------------------------------------------------------------------------|
G|-4~--4~--4-4-------------6~--6~--6-6-8-8--8--4-----------------------------|
D|-4~--4~--4-4-4-4--4--4---6~--6~--6-6-8-8--8--4-----------------------------|
A|-2~--2~--2-2-4-4--4--4---4~--4~--4-4-6-6--6--2-----------------------------|
E|-------------2-2--2--2-----------------------------------------------------|

Guitar 1
e|-11----11----14----14----11----11----12-11----12-11------------------------|
B|----12----12----12----12----12----12-------12-------12---------------------|
G|---------------------------------------------------------------------------|
D|---------------------------------------------------------------------------|
A|---------------------------------------------------------------------------|
E|---------------------------------------------------------------------------|

e|-11----11----14----14----11----11----12-11----12-11------------------------|
B|----12----12----12----12----9-----9--------12-------12---------------------|
G|---------------------------------------------------------------------------|
D|---------------------------------------------------------------------------|
A|---------------------------------------------------------------------------|
E|---------------------------------------------------------------------------|

BRIDGE/SOLO
Guitar 2
e|------------------------------------------------------------------------|
B|------------------------------------------------------------------------|
G|---------------------------------------------------4-4-4-4-4-4-4--------|
D|---6-6-6-6-6-6-6---6-6-6-6-6-6-6---4-4-4-4-4-4-4---4-4-4-4-4-4-4--------|
A|---6-6-6-6-6-6-6---6-6-6-6-6-6-6---4-4-4-4-4-4-4---2-2-2-2-2-2-2--------|
E|X--4-4-4-4-4-4-4-X-4-4-4-4-4-4-4-X-2-2-2-2-2-2-2-X----------------------|

e|-----------------------------------------------------------------|
B|-----------------------------------------------------------------|
G|----------------------------------8-----9-----11-----11-----11~--|
D|---6-6-6-6-6-6-6---6-6-6-6-6-6-6--8-x8--9-x8--11-x4--11-x4-11~--|
A|---6-6-6-6-6-6-6---6-6-6-6-6-6-6--6-----7------9------9------9~--|
E|X--4-4-4-4-4-4-4-X-4-4-4-4-4-4-4---------------------------------|
                                                 .

Guitar 1
e|----------16-----------------------16----------------------16------------|
B|----12----------12-----------12----------12----------12----------12------|
G|-13----13----13----13-----13----13----13----13----13----13----13----13---|
D|-------------------------------------------------------------------------|
A|-------------------------------------------------------------------------|
E|-------------------------------------------------------------------------|

e|-----------------------|
B|----12----12h14p12-----|
G|-13----13----------13--|
D|-----------------------|
A|-----------------------|
E|-----------------------|

                                                                                         +
e|----------16---------------------16-----------------------------11-12-14-14/16-14~--12-12\11~-|
B|----12----------12---------12----------12-14-14b16-14--12-14-16-------------------------------|
G|-13----13----13----13---13----13----13--------------------------------------------------------|
D|----------------------------------------------------------------------------------------------|
A|----------------------------------------------------------------------------------------------|
E|----------------------------------------------------------------------------------------------|

PRECHORUS 3
Guitar 2
(nothing)

Guitar 1
e|---------------------------------------------------------|
B|---------------------------------------------------------|
G|-4-----11-----6-----13-----15-15-15-16~--15-16-15--------|
D|-X-x8---X-x8--X-x4---X-x4---X--X--X--X----X--X--X--------|
A|-2------9-----4-----11-----13-13-13-14~--13-14-13--------|
E|---------------------------------------------------------|
   .      .     .      

e|------------------------------------------------|
B|------------------------------------------------|
G|-4-----11-----13-----13-----15-15-15-16---------|
D|-X-x8---X-x8---X-x4---X-x4---X--X--X--X---------|
A|-2------9-----11-----11-----13-13-13-14---------|
E|------------------------------------------------|
   .      .     .      

CHORUS 3
Guitar 2
e|---------------------------------------------------------------------------|
B|---------------------------------------------------------------------------|
G|-4~--4~--4-4---------------------------------------------------------------|
D|-4~--4~--4-4-4-4--4--4---6~--6~--6-6-2-2--2--2-----------------------------|
A|-2~--2~--2-2-4-4--4--4---6~--6~--6-6-2-2--2--2-----------------------------|
E|-------------2-2--2--2---4~--4~--4-4-0-0--0--0-----------------------------|

e|---------------------------------------------------------------|
B|---------------------------------------------------------------|
G|-4~--4~--4-4-------------6~--6~--6-6-8-8--8--4-----------------|
D|-4~--4~--4-4-4-4--4--4---6~--6~--6-6-8-8--8--4-----------------| x2
A|-2~--2~--2-2-4-4--4--4---4~--4~--4-4-6-6--6--2-----------------|
E|-------------2-2--2--2-----------------------------------------|

Guitar 1
e|-11----11----14----14----11----11----12-11----12-11------------------------|
B|----12----12----12----12----12----12-------12-------12---------------------|
G|---------------------------------------------------------------------------|
D|---------------------------------------------------------------------------|
A|---------------------------------------------------------------------------|
E|---------------------------------------------------------------------------|

e|-11----11----14----14----11----11----12-11----12-11------------|
B|----12----12----12----12----9-----9--------12-------12---------|
G|---------------------------------------------------------------|
D|---------------------------------------------------------------| x2
A|---------------------------------------------------------------|
E|---------------------------------------------------------------|

OUTRO
Guitar 2
e|------------------------------------------------------------------------|
B|------------------------------------------------------------------------|
G|---------------------------------------------------4-4-4-4-4-4-4--------|
D|---6-6-6-6-6-6-6---6-6-6-6-6-6-6---4-4-4-4-4-4-4---4-4-4-4-4-4-4--------|
A|---6-6-6-6-6-6-6---6-6-6-6-6-6-6---4-4-4-4-4-4-4---2-2-2-2-2-2-2--------|
E|X--4-4-4-4-4-4-4-X-4-4-4-4-4-4-4-X-2-2-2-2-2-2-2-X----------------------|

Guitar 1
e|----------16-----------------------16----------------------16------------|
B|----12----------12-----------12----------12----------12----------12------|
G|-13----13----13----13-----13----13----13----13----13----13----13----13---|
D|-------------------------------------------------------------------------|
A|-------------------------------------------------------------------------|
E|-------------------------------------------------------------------------|

e|-----------------------|
B|----12----12h14p12-----|
G|-13----13----------13--|
D|-----------------------|
A|-----------------------|
E|-----------------------|


| /    slide up
| \    slide down
| h    hammer-on
| p    pull-off
| ~    hold/vibrato
| +    harmonic
| X    Mute note
| x(#) repeat # of times
| .    palm mute
===============================================================================




Share "Obvious" by Faber Drive


TOP 10 TABS

FRESH NEW TABS

ALL ARTISTS
artist wiki

mp3bear.com
song lyrics / contact us / privacy policy / tabspace toolbar
Copyright 2004 - 2014 TabSpace.com - All Rights Reserved.
song: obvious guitar tabs by faber drive

0.021