:: Guitar & Bass Tabs Make Home Page
A B C D E F G H I J K L M N O P Q R S T U V W X Y Z #

  for    

On TABSPACE
Info About This Tab
Artist: Margot And The Nuclear So And Sos
Tab Type: Guitar
Rate This Tab!
tuned half step down


INTRO
e---------------|
b--1---1----1---|
g--2---1----1---|
d--2-0h2----0---|
a-0-------0h2---|
E---------------|

VERSE
e---------------|
b--1-1-1-1-1----|
g--2-----2------|  then play INTRO 2X
d--2-2---3------|
a----3-2-3-2----|
E---------------|

CHORUS

e--------3------|
b--1-1-1-3------|
g--2-2-2--------|
d--3-2-3--------|
a--3---3-2------|
E--------3------|

BREAK/FILL after chorus
e-------------------|
b--1--1-------------|
g--2--2-------------|
d--2--3-------------|
a-----3-------------|
E-------------------|

repeat parts/ listen to the song


Share "Ocean" by Margot And The Nuclear So And Sos


TOP 10 TABS

FRESH NEW TABS

ALL ARTISTS
artist wiki

mp3bear.com
song lyrics / contact us / privacy policy / tabspace toolbar
Copyright 2004 - 2014 TabSpace.com - All Rights Reserved.
song: ocean guitar tabs by margot and the nuclear so and sos

0.013