:: Guitar & Bass Tabs Make Home Page
A B C D E F G H I J K L M N O P Q R S T U V W X Y Z #

  for    

On TABSPACE
Info About This Tab
Artist: Rapture
Tab Type: Bass
Difficulty: novice
Rate This Tab!
this song has a simple yet cool bass line
  
normal tuning (e,a,d,g)

verse
G----------------------------------------------------|
D----------------------------------------------------|
A-5-5-5-5-----5-5-5-5-0-3-----1-1-1-1-----3-3-3-1-0-3|
E----------------------------------------------------| 

G----------------------------------------------------|
D----------------------------------------3-3-3-------|
A-5-5-5-5-----5-5-5-5-0-3-----1-1-1-1-----------5-3-0|
E----------------------------------------------------|

little break down thing 
G----------------------------------------------------|
D----------------------7-----------------------------|
A----6-7-5---------6-7-------------------------------|
E-5-----------5-5------------------------------------|

the play the verse for awhile

then break down thing

instermental part
G-----------------------------7--7---------------------|
D-------6-7--5-----------6-7-------7-------------------|
A-5-5-5-----------5-5-5--------------------------------|
E------------------------------------------------------|

thats about it 



Share "Olio" by Rapture


TOP 10 TABS

FRESH NEW TABS

ALL ARTISTS
artist wiki

mp3bear.com
song lyrics / contact us / privacy policy / tabspace toolbar
Copyright 2004 - 2014 TabSpace.com - All Rights Reserved.
song: olio bass tabs by rapture

0.013