:: Guitar & Bass Tabs Make Home Page
A B C D E F G H I J K L M N O P Q R S T U V W X Y Z #

  for    

On TABSPACE
Info About This Tab
Artist: Tokio Hotel
Tab Type: Bass
Rate This Tab!
----------------------------------------------------------------------------
			     ON THE EDGE - Tokio Hotel
----------------------------------------------------------------------------

Tabbed By : B R U C I E
e-mail: chipmonky@gmail.com

Tuning:Standard

INTRO- AFTER GUITAR
G|-----------|
D|-----------|
A|---5-6-7---|
E|-----------|


VERSE

G|-----------------------------------|
D|-----------------------------------|
A|-------------------3333----5-6-7---|
E|-1-1-4-4-1-1-4-4444----4444--------| X3

BRIDGE
G|------------------------------|
D|------------------------------|
A|-3-3-3-3-3-3------------------|
E|--------------4-4-4-4-4-4-4---|X 2

CHORUS

G|---------------------------------------------|
D|---------------------------------------------|
A|--------------------7-7-7777-444444-7-7-7----|
E|-1-1-4-4-1-1-4-4444--------------------------| X2

G|------------------------------------------------|
D|------------------------------------------------|
A|--------------------7-7-7777-444444-777777-3~---|
E|-1-1-4-4-1-1-4-4444-----------------------------| 


AFTER CHORUS- DURING SOLO

G|----------------------------------------------|
D|----------------------------------------------|
A|--9-6-4-4-6-4-1-1--1-1-11--11-11-11-11-11-9---|
E|----------------------------------------------|


G|-----------|
D|-----------|
A|---5-6-7---|
E|-----------|

VERSE

G|-----------------------------------|
D|-----------------------------------|
A|-------------------3333----5-6-7---|
E|-1-1-4-4-1-1-4-4444----4444--------| X3

BRIDGE


G|------------------------------|
D|------------------------------|
A|-3-3-3-3-3-3------------------|
E|--------------4-4-4-4-4-4-4---|X 2

CHORUS

G|---------------------------------------------|
D|---------------------------------------------|
A|--------------------7-7-7777-444444-7-7-7----|
E|-1-1-4-4-1-1-4-4444--------------------------| X2

G|------------------------------------------------|
D|------------------------------------------------|
A|--------------------7-7-7777-444444-777777-3~---|
E|-1-1-4-4-1-1-4-4444-----------------------------|

SOLO (repeat as needed)
G|--------------------------------------------------------|
D|--------------------------------------------------------|
A|--9-6-4-4-6-4-1-1--1-1-11--11-11-11-11-11-13-13-13-5-6-7|
E|--------------------------------------------------------|

G|----------------|
D|----------------|
A|----------------|
E|-3~-5~-4~-------|

G|------------------------------|
D|------------------------------|
A|-3-3-3-3-3-3------------------|
E|--------------4-4-4-4-4-4-4---|X 2

CHORUS

G|---------------------------------------------|
D|---------------------------------------------|
A|--------------------7-7-7777-444444-7-7-7----|
E|-1-1-4-4-1-1-4-4444--------------------------| X2

G|----------------------------------------------------|
D|----------------------------------------------------|
A|--------------------7-7-7777-44444-777777-4444444---|
E|-1-1-4-4-1-1-4-4444---------------------------------|


G|------------------|
D|------------------|
A|-777777-444444-4~-|
E|------------------|


SOLO (repeat as needed)
G|--------------------------------------------------------|
D|--------------------------------------------------------|
A|--9-6-4-4-6-4-1-1--1-1-11--11-11-11-11-11-13-13-13-5-6-7|
E|--------------------------------------------------------|

* Don't know how to work out last part, I'm lazy*

I hope this is alright, I'm trying out tabbing and I've only been doing Tokio Hotel
songs because I seem to know them better...if any are needed, I can take requests. =)

| /  slide up
| \  slide down
| h  hammer-on
| p  pull-off
| ~  vibrato
| +  harmonic
| x  Mute note
===============================================================================


Share "On The Edge" by Tokio Hotel


TOP 10 TABS

FRESH NEW TABS

ALL ARTISTS
artist wiki

mp3bear.com
song lyrics / contact us / privacy policy / tabspace toolbar
Copyright 2004 - 2014 TabSpace.com - All Rights Reserved.
song: on the edge bass tabs by tokio hotel

0