:: Guitar & Bass Tabs Make Home Page
A B C D E F G H I J K L M N O P Q R S T U V W X Y Z #

  for    

On TABSPACE
Info About This Tab
Artist: George Thorogood
Tab Type: Guitar
Rate This Tab!
Artist: George Thorogood
Song: One Bourbon, One Scotch, and One Beer
Tabber: BOB DOLL
Tuning EADGBe

Intro: Play w/righthand fingers
e|---0------0-----0-----0-----0-----0----0-----0-----0-----0-------|
B|---0------0-----0-----0-----0-----0----0-----0-----0-----0-------|
G|---1------1-----1-----1-----1-----1----1-----1-----1-----1-------|
D|-----------------------------------------------------------------|
A|-----------------------------------------------------------------|
E|-----------------------------------------------------------------|

Verse:
e|--0----0-------------------0-----0-----0-----0----0----0---0-----|
B|--0----0-------------------0-----0-----0-----0----0----0---0-----|
G|--1----1-------------------1-----1-----1-----1----1----1---1-----|
D|-----------------0h2-(2)-----------------------------------------|
A|-----------------------------------------------------------------|
E|------------(0)--------------------------------------------------|

e|--0----0----0----0----------------------0------0------0------0---||
B|--0----0----0----0----------------------0------0------0------0---||
G|--1----1----1----1-----------0h1--------1------1------1------1---||o
D|-----------------------(2)---------2-----------------------------||o
A|-----------------------------------------------------------------||
E|-----------------------------------------------------------------||

e|-0-------------------0------0-----0------0---||
B|-0-------------------0------0-----0------0---||
G|-1------0h1----------1------1-----1------1---||o
D|-----2---------0h2---------------------------||o
A|---------------------------------------------||
E|---------------------------------------------||

e|--0------0---------------------------------------0---0---0--0--0----------|
B|--0------0------------------------/3---3----3----3---3---3--3--3----------|
G|--1------1------------------------/4---4----4----4---4---4--4--4----4-2p0-|
D|-----------------0-----2--------------------------------------------------|
A|--------------------------------------------------------------------------|
E|--------------0-----0-----------------------------------------------------|
pm              .     .

e|-------------------------0---------0-----0------0----0----0-----------------|
B|-----------------------------------0-----0------0----0----0-----------------|
G|--------0------------0h1-----------1-----1------1----1----1---------0h1-----|
D|-2--------------0h2------------2------------------------------------2-------|
A|----0h2---------------------2--------------------------------------------2--|
E|-----------3^-0--------------------------0------0----0----0----0------------|

e|----0---0---0---0---0---0---0----------------------------------------0------|
B|----0---0---0---0---0---0---0-----------------------------------------------|
G|----1---1---1---1---1---1---1-----0h1----------------------------0h1--------|
D|-2--------------------------------2---------2--------0-------0h2----------2-|
A|----------------------------------------2-------0h2--------------------2----|
E|----0---0---0---0---0---0---0---------------------------3^-0----------------|

e|--0----0----0-----0-----0-----0--------0----0----0----0----0-----||
B|--0----0----0-----0-----0-----0--------0----0----0----0----0-----||
G|--1----1----1-----1-----1-----1-----------------------1----1-----||o
D|-----------------------------------------------------------------||o
A|-----------------------------------------------------------------||
E|-------0----0-----0-----0-----0-----0-----------------0----0-----||
pm                                       ..

I notice when i come home in the evening....
e|----------------------------------------------0--------0--0---0---|
B|-------------------------------------------------------0--0---0---|
G|-----2----0h1-----------------------------0h1----------1--1---1---|
D|-----2----2----------0h2-------------0h2-----------2--------------|
A|--------------------------0h2-------------------2-----------------|
E|--0-------------0--------------3^-0-----------------------0---0---|

but for five years she was so nice........
e|--0----0----0----0----0----0-------------------0~-----0----0----0-||
B|--0----0----0----0----0----0-------------------0~-----0----0----0-||
G|--1----1----1----1----1----1-------0h1---------1~-----1----1----1-||o
D|-----------------------------------2-----0h2----------------------||o
A|------------------------------------------------------------------||
E|-------0----0----0----0----0----0---------------------------------||

the rent yet?        I said no,             cant find no job....
e|--0---0----0---0---0---0----0------------------0----0-------------|
B|--0---1----0---0---0---0----0------------------0----0-------------|
G|--1---1----1---1---1---1----1------------------1----1------0h1----|
D|------------------------------------0-----2-------------2---------|
A|---------------------------------2--------------------------------|
E|---------------------------------------0--------------------------|

you're trying to find no job.............-
e|--0---0---0---0-----------------------------------0----0----0----0-|
B|--0---0---0---0-----------------------------------0----0----0----0-|
G|--1---1---1---1------2p0--------------------------1----1----1----1-|
D|----------------------------0h2---------2p0------------------------|
A|-------------------------------------------------------------------|
E|--0---0---0---0---0-------------------------------0----0----0----0-|
trill                         >>>>>>>>>>>>>>>>

e|---------------------0----0----0----0----|---------------|
B|---------------------0----0----0----0----|---------------|
G|---------------------1----1----1----1----|-------0h1-----|
D|-----0-----2---2-------------------------|-------2-----2-|
A|--2--------------------------------------|---------------|
E|--------0------------0----0----0----0----|---0-----------|

e|---0----------------------------------------------------------------------|
B|---0---------------------/3---3--3---3--3--3--3---------------------------|
G|---1---------------------/4---4--4---4--4--4--4--4-2p0----------------0h1-|
D|----------0------2-------------------------------------2-----0-----0h2----|
A|-------2-------------------------------------------------0h2--------------|
E|---0---------0-------------------------------------------------3^-0-------|

e|-0--------0-------0----0----0----0----0-------------------0---|
B|----------0-------0----0----0----0----0--------------0--------|
G|----------1-------1----1----1----1----1-----0p1------1--------|
D|------2-------------------------------------2-----2-----------|
A|---2----------------------------------------------------------|
E|-----------------------0----0----0----0---0-------------------|

can i stay with you maybe a couple of days?
e|----0----0-----0----0-------------0-----0-----0---|
B|----0----0-----0----0-----2---3---3-----3-----0---|
G|----1----1-----1----1-------------1-----1-----1---|
D|--------------------------------------------------|
A|--------------------------------------------------|
E|----0----0-----0----0-----------------------------|

He said uh let me go ask my wife
e|---0----0----0----0----0----0----0-----0----0----0----0----0----|
B|---2----3----3----0----0----0----0-----0----2----3----3----0----|
G|---1----1----1----1----1----1----1-----1----1----1----1----1----|
D|----------------------------------------------------------------|
A|----------------------------------------------------------------|
E|----------------------------------------------------------------|

interchange between these chords for this part of verse
e|-0--|--0--|--0--|
B|-3--|--2--|--0--|
G|-1--|--1--|--1--|
D|----|-----|-----|
A|----|-----|-----|
E|----|-----|-----|

e|--0----------0----0-------------------------------------------|
B|--0----------0----0-----5---5--5---5----5----5--------0-------|
G|--1----0h1---1----1-----7---7--7---7----7----7--------1-------|
D|------------------------6---6--6---6----6----6------------2---|
A|---------------------------------------------------2----------|
E|--------------------------------------x----x----x-------------|

e|------------------------------0----0----0---------------0---0-----------|
B|------------------------------0----0----0---------------0---0-----------|
G|-----------------------------------------------0h1------1---------------|
D|-----------------------------------------------2----2------------2--2---|
A|-------------------0----2-------------------------------------2---------|
E|-0------0-----0---------------0----0----0---0-------------------------0-|
pm................                                                      .

e|--0-----0-----0------|-----------0------------------------------------------||
B|--0-----0-----0------|-----0-----0-----0------0-----------------------------||
G|--1-----1-----1------|-----1-----------0------0-----------------------------||
D|---------------------|------------------------------2----2----2---2---2---2-||
A|---------------------|------------------------------------------------------||
E|-----0-----0------0--|---0----0-----0-----0------0----0----0----0---0---0---||
pm     .     .      .      .    .     .     .      .    .    .    .   .   .

I slip out the back door.........
e|------0----0---0---0-----------------------------------------0-------|
B|------0----0---0---0---/3---3---------------------------0h1----------|
G|------1----1---1---1---/4------2p0-----------------------------------|
D|--2---------------------------------2-0h2----------0h2-------------2-|
A|------------------------------------------oh2------------------------|
E|----------------------------------------------3^-0--------------2----|

e|--0----0----0----0----0----0--------------------------|----0----0-------|
B|--0----0----0----0----0----0--------------------------|----0----0-------|
G|--1----1----1----1----1----1------2p0-----------------|----1----1--0--1-|
D|----------------------------------------0h2Trill-(2)--|------------2--2-|
A|------------------------------------------------------|-----------------|
E|----0-----0----0----0----0----0-----------------------|-0-----0---------|
pm    .     .    .    .    .    .                         .     .

Chorus: One Bourbon, one scotch, and one beer..........
e|--------0-----0--0--------2--2--2--2--2--2p0----------------0--0--2--2--2|
B|--------0-----0--0--0-----0--0--0--0--0----------3---2---1--0--0--0--0--0|
G|-------------------------------------------------------------------------|
D|-2-------------------------------------------0---------------------------|
A|-----------------------2-------------------------------------------------|
E|-----------------------------------------------0-------------------------|

e|-----------------------------------0~------------------------------|
B|-----------------------------------0~------------------------------|
G|---------------------0h1-------------------------------------------|
D|--x--0-----2------x--2------2--------------2---------0--------2----|
A|---------------------------------------2----------2----------------|
E|---------------------------------------------------------0---------|

fear.   I want  one bourbon, one scotch, one beer.
e|------------------------------------------------0---------0-------|
B|------------------------------------------------0----3----3--0----|
G|------------------------------------------------------------------|
D|--0h2---0h2---0h2---0h2-----0h2---0h2--0h2---2--------------------|
A|----------------------------------------------------------------2-|
E|-------------------------0----------------------------------------|

e|--2---2---2---2--2---2p0--------------------0---------2-----2---2-|
B|--0---0---0---0--0--------------3---2---1---0---0-----0-----0---0-|
G|------------------------------------------------------------------|
D|--------------------------0------------------------2--------------|
A|------------------------------------------------------------------|
E|------------------------------0-----------------------------------|

e|---------0-----0----------------------------------------------------|
B|---------0-----0----------------------------------------------------|
G|--------------------------------------------------------------------|
D|-0---2-------------0h2---0----2---0------------------------------2--|
A|---------------------------------------2----0---------------2h4-----|
E|------------------------------------------------3^----0-------------|

e|-0--------0------------trill----------------------------------------0--|
B|-0--------0-------------0h1-----------------------------------------0--|
G|-1------------------------------------/4---4--2p0-2-0-2h4-2p0----------|
D|-------------------2--------------2----------------------------0h2-----|
A|-------------------------------2-------------------------------trill---|
E|--------------(0)------------------------------------------------------|

I'm drinkin a beer.   Looked down the bar
e|--0----0---------------------------------------------------------|
B|--0----0---------------------------------------------------------|
G|----------------------0h1------------2p0-2-0-/4-4-2p0-2-0-2/7\2--|
D|----------2---2---2--------2-----2-------------------------------|
A|------------------------------2----------------------------------|
E|-----------------------------------------------------------------|
0
e|--0--------0-------------------------------0---------0------0-------|
B|--0--------0-------------------------------0---------0------0-----0-|
G|--------------------------------------------------------------------|
D|-------2---------2----0h2--2--0--2--0--2^--------2------2-----------|
A|----------------------------------------------2---------------------|
E|--------------0-----------------------------------------------------|

e|--------2---2---2---2----------------0--0----2--2--2-------------|
B|--------0---0---0---0-----3---2--1---0--0--0-0--0--0-------------|
G|-----------------------------------------------------------------|
D|--------------------------------------------------------0----2---|
A|--2---2-----------------------------------------------2----------|
E|-----------------------0-----------------------------------0-----|

e|-0----------------------------------------------------------------|
B|-0----------------------------------------------------------------|
G|------------2p0---------------oh1---------------------------------|
D|------2------------0h2p0------2-----2------0--0h2-0h2-0h2-0h2-0h2-|
A|----------------------------------------2-------------------------|
E|----0-------------------------------------------------------------|

Solo:
e|--0---0----2---2--0---0-0-0-0-0-0-0-0-0--------------------------|
B|--0---0--0---0----0--/5-5-5-5-5-5-5-5-5-3-0----------------------|
G|-------------------------------------------2p0-2-2p0-------0-2p0-|
D|-----------------------------------------------------2-2-2-------|
A|-----------------------------------------------------------------|
E|-----------------------------------------------------------------|

e|-----0--0----0--0--0--0--0--0--/10-10-10-10-10-10-10-10-10-10----|
B|-3/5-------x-5--5--5--5--5--5--/12-12-12-12-12-12-12-12-12-12----|
G|-----------------------------------------------------------------|
D|--------------------------------------------------------------x--|
A|-----------------------------------------------------------------|
E|-----------------------------------------------------------------|

e|------------------------------------------------------------------|
B|-8--8--8--8---------8--8--8--8--8--8--10^--10^--10^--10^--10^--10-|
G|-9--9--9--9--9--/9--9--9--9--9--9---------------------------------|
D|-7--7--7--7--7--/7--7--7--7---------------------------------------|
A|-0--0--0--0-----/0--0--0--0---------------------------------------|
E|------------------------------------------------------------------|

e|-----------------------------------------------0-------------------|
B|-8--10p8--------8h10-10-10/12-12-12-12-12\--/5---3p0-0-------------|
G|---------9---9-----------------------------------------2p0---------|
D|-----------------------------------------------------------2-2-2-2-|
A|-------------------------------------------------------------------|
E|-------------------------------------------------------------------|

e|-----------------------------------7^--------------0------0----|
B|-----------------------------------8^---------------------0----|
G|--0-2--2--2--2p0-----------------------------------------------|
D|-----------------2--2-----------------------0---2------2-------|
A|-----------------------0--1--2--/------------------------------|
E|---------------------------------------7\0---------------------|

e|-x-x-x--7-7-7-7-7-7-7---7---7---7--7\-----------------------------|
B|-x-x-x--8-8-8-8-8-8-8---8---8---8--8\-----------------------------|
G|--------------------------------------------------------------0h1-|
D|---------------------------------------0-----2------0-------x-----|
A|------------------------------------------------0h2---------------|
E|------------------------------------------0------------3--0-------|

e|-0~---0--0----------------------------0--0----------0--------|
B|------0--0---/3-----------------------0--0----------0--------|
G|-------------/4---2--0--/4--2p0------------------------------|
D|---------------------------------2---------------2-----------|
A|-------------------------------------------------2-----------|
E|--------------------------------------------0----------------|

e|-------------------------------------3---------0-----------------------|
B|----3----3----------3------3-----3------5\-----0-----3---3---3---3---3-|
G|--4----4---4--4--4------4-----4--------------------4---4---4---4---4---|
D|-----------------------------------------------------------------------|
A|-----------------------------------------------------------------------|
E|-----------------------------------------------------------------------|

e|--------------------------------------------------------------------|
B|-----3---5\-------------------------------------8h10p8-10^--10p8----|
G|-4--------------------0h9--------0h9------9----------------------9\-|
D|----------------------trill------trill------------------------------|
A|--------------------------------------------------------------------|
E|--------------------------------------------------------------------|

scratch my back, baby....
e|-0----0-----------------------------------15--------------------------|
B|-0----0--------12--12--12-12-12-12--12-12-14--12-12-12-12-12-12-12-12-|
G|----------------------------------------------------------------------|
D|----------------------------------------------------------------------|
A|----------------------------------------------------------------------|
E|----------------------------------------------------------------------|
pm               ......................................................

e|-14-------------------------------15--14-----------14^-------------14^|
B|----12-12---12--12-12-12-12-12-12-14-----12-12--12-----12-12-12-12----|
G|----------------------------------------------------------12-12-12----|
D|----------------------------------------------------------------------|
A|----------------------------------------------------------------------|
E|----------------------------------------------------------------------|
pm......................................................................

e|-----------------------14^------------0--------------------------------|
B|-12-12-12--12-12-12-12----------------0--------------------------------|
G|-------12--------------------------------------------------------------|
D|---------------------------0------2----------2--0-------------2-0------|
A|---------------------------0--------------2-------2--0--2---2-----2--2-|
E|--------------------------------0--------------------------------------|
pm..........................

e|------------------0--0--------------------------------------------------||
B|---------------------0--------------------------------------------------||
G|--------------0h1-------7-----7-----7-----7\----------------------7---7-||
D|-----0----0h2-----------6-----6-----6-----6\---x--x--x--x--x--x---6---6-||
A|-0h2--------------------7--7--7-----7--7--7\---x--x--x--x--x--x-7---7---||
E|-------3----------------0--0--0-----0--0--0-----------------------------||

e|----------|-------------------------0-------------------------------------|
B|-5-5-5-5--|-------------------------0-----------3--3-3-3-3-3-0-2----------|
G|-7-7-7-7--|-------------------------------------1--1-1-1-1-1-1-2-0h1------|
D|-6-6-6-6--|-------------------0---2---2-2-2-2-2-2--2-2-2-2-2-2-------2----|
A|-7-7-7-7--|-/7--7-5-------------------2-2-2-2-2-2--2-2-2-2-2----------0h2-|
E|----------|---------7-6-5^-0----0-----------------------------------------|

e|-------------0--0----0-0--------------------------------0--0---|
B|----------------0----0-0--------------------3-3h5--5\---0--0---|
G|---------0h1-----------------------------4---------------------|
D|-0-----0-------------------------------------------------------|
A|----------------------------5---5h7--7/------------------------|
E|---3-0--------------------7---7--------------------------------|

e|------------------0-------------------------------------------------0-|
B|------------------0----------------------------------12-------------0-|
G|-----------------------------2-0h1----------------------14-14^-h12----|
D|---0h2-0h2--0h2--------2-----2-----2---0--2--2\---14------------------|
A|----------------------------------------------------------------------|
E|---------------------0------------------------------------------------|

e|---------0-----------0----------------------|--------------------------|
B|---------0-----------0----------------------|--------------------------|
G|--------------------------------7---7-7---7-|-----------------7---7----|
D|--2------------2-----------2----6---6-6---6-|-----------------6---6----|
A|--2------------2-----------2------7---------|---------------7---7------|
E|------------0-----------0-----x---------x---|-x-x-x-x-x-x-x---------xx-|

tabbb bbby BOB DOLL


Share "One Bourbon One Scotch And One Beer" by George Thorogood


TOP 10 TABS

FRESH NEW TABS

ALL ARTISTS
artist wiki

mp3bear.com
song lyrics / contact us / privacy policy / tabspace toolbar
Copyright 2004 - 2014 TabSpace.com - All Rights Reserved.
song: one bourbon one scotch and one beer guitar tabs by george thorogood

0.06