:: Guitar & Bass Tabs Make Home Page
A B C D E F G H I J K L M N O P Q R S T U V W X Y Z #

  for    

On TABSPACE
Info About This Tab
Artist: 36 Crazyfists
Tab Type: Guitar
Difficulty: novice
Tuning: Drop C
Rate This Tab!
36 Crazyfists
Only A Year Or So...
The Tide And Its Takers
Drop C- CGCFAD

-Intro-
Piano
D|--------------------------------------------------|
A|--------------------------------------------------|
F|----9----9----9----9----9----9-----9-----9-----9--|
C|--10---10---10---10---10------9-----9-----9-----9-|
G|-7----7----7----7----7----------------------------|
C|--------------------------10----10----10----10----|

Guitar
D|-------------------------------------|
A|-10~~~-------------------------------|
F|----------7~~~----7/9----------------|
C|----------------------10~~~----------|
G|-------------------------------12~~~-|
C|-------------------------------------|




Share "Only A Year Or So Intro" by 36 Crazyfists


TOP 10 TABS

FRESH NEW TABS

ALL ARTISTS
artist wiki

mp3bear.com
TabSpace.com / contact us / privacy policy / tabspace toolbar
Copyright 2004 - 2016 TabSpace.com - All Rights Reserved.
song: only a year or so intro guitar tabs by 36 crazyfists

0.006