:: Guitar & Bass Tabs Make Home Page
A B C D E F G H I J K L M N O P Q R S T U V W X Y Z #

  for    

On TABSPACE
Info About This Tab
Artist: Panic At The Disco
Tab Type: Bass
Difficulty: intermediate
Rate This Tab!
-----------------------------------------------------------
I've listends to the song a few times and also read some other
bass tabs for this song and this is how I feel it is played if
you don't like it then fine.
-----------------------------------------------------------

the first 10 seconds is just guitars, singer, and drums

0:11
Intro
G----------------|----------------|-----------------|
D-2--4-4--2--4-4-|----------------|-----------------|
A----------------|-4--5-5--4--5-5-|-5--7-7--5--7-7--|
E----------------|----------------|-----------------|

   1 & 2 & 3 & 4 &
-|-----------------|
-|-----------------|
-|---5---5---5-4---|
-|-----------------|

Do that twice. Then play this next pary straight threw

0:22
Bridge
G-----------------|-----------------|
D-----------------|-----------------|
A-----------2-4---|-----------------|
E-2-2-5-2-5-----0-|-0-0-0-0-2-2-5-2-|

Do that twice.

0:28
Chorus
G-----------------|-----------------|------------------|
D-----------------|-----------------|------------------|
A-----------------|-----------------|-5-5-5-5-5-5-5-5--|
E-0-0-0-0-0-0-0-0-|-2-2-2-2-2-2-2-2-|------------------|

G-----------------|-----------------|------------------|
D-----------------|-----------------|------------------|
A---------7-7-7-7-|-5-5-5-5-5-5-5-5-|------------------|
E-5-5-5-5---------|-----------------|-0-0-0-0-0-0-0-0--|

G---------------|----------------|
D---------------|----------------|
A---------------|----------------|
E-0--2-2--0-2-2-|-0--2-2--0--2-2-|

It goes back to only Guitars, Singer, and Drums

0:51

Then it goes back to the Intro riff

1:02
G----------------|----------------|-----------------|
D-2--4-4--2--4-4-|----------------|-----------------|
A----------------|-4--5-5--4--5-5-|-5--7-7--5--7-7--|
E----------------|----------------|-----------------|

   1 & 2 & 3 & 4 &
-|-----------------|
-|-----------------|
-|---5---5---5-4---|
-|-----------------|

Do that twice then.

1:13
G---------|---------|
D---------|---------|
A---------|-4-4-4-4-|
E-2-2-2-2-|---------|

Play once and then it goes to the chorus again.

1:16
Chorus
G-----------------|-----------------|------------------|
D-----------------|-----------------|------------------|
A-----------------|-----------------|-5-5-5-5-5-5-5-5--|
E-0-0-0-0-0-0-0-0-|-2-2-2-2-2-2-2-2-|------------------|

G-----------------|-----------------|------------------|
D-----------------|-----------------|------------------|
A---------7-7-7-7-|-5-5-5-5-5-5-5-5-|------------------|
E-5-5-5-5---------|-----------------|-0-0-0-0-0-0-0-0--|

G---------------|----------------|
D---------------|----------------|
A---------------|----------------|
E-0--2-2--0-2-2-|-0--2-2--0--2-2-|

Play that twice and then. At 1:39 its just a hard F# with feed back
and all the other little stuff in the back round. (You can add a few
slaps in there or just hold the note out any thing to make noise)

1:39
G--------------|
D--------------|
A--------------|
E-2~~~~--------|

then at 1:45 you have to listen hard but you can hear the
bass start up and it flows into the techno part of the song.
(if you have trouble just listen to the synth part it
fallows that. This little bit of the song is hard to make out
so sorry for anything thats wrong.)

1:45
G-----------------|
D-----------------|
A---------1-3-4---|
E-2-2-2-2-------0-|

Play that till 1:50 then. You play the bass line with the fake snare.
(listen and you'll hear it)

        From here on play this section.
1:50        /
G------||------------------|
D------||-4444--2222--4444-|
A------||------------------|
E-0000-||------------------|

Play that till 1:59 then. Every thing stops except the synth part.
Then at 2:01 every thing comes back in including the singer.

2:01
G-----------------|-----------------|
D-----------------|-----------------|
A-----------------|-----------------|
E-2-2-2-2-2-2-2-2-|-5-5-5-5-4-4-4-4-|

Play that till 2:09 where every thing cuts out except for the singer.
Then it goes back to the chorus again at 2:13 except the 2nd time is
different.

2:13
Chorus
G-----------------|-----------------|------------------|
D-----------------|-----------------|------------------|
A-----------------|-----------------|-5-5-5-5-5-5-5-5--|
E-0-0-0-0-0-0-0-0-|-2-2-2-2-2-2-2-2-|------------------|

G-----------------|-----------------|------------------|
D-----------------|-----------------|------------------|
A---------7-7-7-7-|-5-5-5-5-5-5-5-5-|------------------|
E-5-5-5-5---------|-----------------|-0-0-0-0-0-0-0-0--|

G---------------|----------------|------------------|
D---------------|----------------|------------------|
A---------------|----------------|------------------|
E-0--2-2--0-2-2-|-0--2-2--0--2-2-|-0-0-0-0-0-0-0-0--|

G-----------------|-----------------|------------------|
D-----------------|-----------------|------------------|
A-----------------|-5-5-5-5-5-5-5-5-|---------7-7-7-7--|
E-2-2-2-2-2-2-2-2-|-----------------|-5-5-5-5----------|

G-----------------------------------|       2:32-|
D------------------------------------------------|(every thing cuts out)
A-5-5-5-5-5-5-5-5-|------------------------------|    (except vocals)
E-----------------|-0-0-0-0-0-0-0-0--------------|

The ending is pretty simple.(Its all about holding
the notes with the guitar in the back round.)

2:35    1 & 2 & 3 & 4 & 5 & 6 & 7 & 8 &
G-----|---------------------------------|-----|--|
D-----|---------------------------------|-----|--|
A-----|---------------------------------|-----|--|
E-2--|-2----------------------0-0-0-0-|-2--|-----|
                                  /
                            (Something like that listen to it.)
    1 & 2 & 3 & 4 & 5 & 6 & 7 & 8 &
G---------------------------------|-------|
D---------------------------------|-------|
A---------------------------------|-5~~---|
E-2----------------------x-x-x-x-|--------|

Have fun...


Share "Only Difference Between Martydom And Suicide Is Press Coverage" by Panic At The Disco


TOP 10 TABS

FRESH NEW TABS

ALL ARTISTS
artist wiki

mp3bear.com
song lyrics / contact us / privacy policy / tabspace toolbar
Copyright 2004 - 2014 TabSpace.com - All Rights Reserved.
song: only difference between martydom and suicide is press coverage bass tabs by panic at the disco

0.021