:: Guitar & Bass Tabs Make Home Page
A B C D E F G H I J K L M N O P Q R S T U V W X Y Z #

  for    

On TABSPACE
Info About This Tab
Artist: Evanescence
Tab Type: Guitar
Rate This Tab!
hola a todoss¡¡... bueno veran hablo español.. nowei¡¡¡... jkajka... una cancion del 
...a sorra
a mi me gusto ojala la disfruten yn la toquen tanto cmo io...


intro:
el bajo maraca el intro...

verso:
---------------------        --------------------|
---------------------        --------------------|
---------------------        --------------------|
---------------------   x4   --------------------|  x2
--1-1-1-1-1--1-1-1-1-        -2-2-2-2-2--2-2-2-2-|
--1-1-1-1-1--1-1-1-1-        -2-2-2-2-2--2-2-2-2-|

---------------------|
---------------------|
---------------------|
---------------------|  x2
--1-1-1-1-1--1-1-1-1-|
--1-1-1-1-1--1-1-1-1-|


prechorus:

piano y voz...

chorus:

------------------------------------|
------------------------------------|
------------------------------------|
--3-3-3-------------3-3-3-----------|  x4
--3-3-3---3-1-4-3---3-3-3---3-1-----|
--1-1-1-------------1-1-1-------4-3-|

verso:

---------------------        --------------------|
---------------------        --------------------|
---------------------        --------------------|
---------------------   x4   --------------------|  x2
--1-1-1-1-1--1-1-1-1-        -2-2-2-2-2--2-2-2-2-|
--1-1-1-1-1--1-1-1-1-        -2-2-2-2-2--2-2-2-2-|

---------------------|
---------------------|
---------------------|
---------------------|  x2
--1-1-1-1-1--1-1-1-1-|
--1-1-1-1-1--1-1-1-1-|

todo dos veces : All the verse 2 veces XD...

chorus:

------------------------------------|
------------------------------------|
------------------------------------|
--3-3-3-------------3-3-3-----------|  x4
--3-3-3---3-1-4-3---3-3-3---3-1-----|
--1-1-1-------------1-1-1-------4-3-|


bridge:

------------------------------------|
------------------------------------|
------------------------------------|
------------------------------------|  x4
-1-1-1-1/2-1--1-1-1-1/2-1-----------|
-1-1-1-1/2-1--1-1-1-1/2-1-----------|


chorus:

------------------------------------|
------------------------------------|
------------------------------------|
--3-3-3-------------3-3-3-----------|  x4
--3-3-3---3-1-4-3---3-3-3---3-1-----|
--1-1-1-------------1-1-1-------4-3-|

outro:
------------------------------------|
------------------------------------|
------------------------------------|
------------------------------------|  x2
------3---4---3--------3---4---3----|
--1-1---1---1----1-1-1---1---1------|

bueno mi primer tab q hago...
me siento bn..
ojala lo encuentren bn...
besito saludos para mis amigos...
q siempre me ayudan a salir adelante...
y espero tocarla con mi amiga...
bueno eso...

bye bye...


Share "Only One" by Evanescence


TOP 10 TABS

FRESH NEW TABS

ALL ARTISTS
artist wiki

mp3bear.com
song lyrics / contact us / privacy policy / tabspace toolbar
Copyright © 2004 - 2014 TabSpace.com - All Rights Reserved.
song: only one guitar tabs by evanescence

0.015