:: Guitar & Bass Tabs Make Home Page
A B C D E F G H I J K L M N O P Q R S T U V W X Y Z #

  for    

On TABSPACE
Info About This Tab
Artist: Margot And The Nuclear So And Sos
Tab Type: Guitar
Rate This Tab!
tuned half step down


VERSE

e--3-3----3--3-3----------|
b--3-3----3--3-3----------|
g-------------------------|
d--2-20h2-2---------------|
a--2-3--------------------|
E---------2--3-2----------|

CHORUS


e--3---3-3-------------------3----------|
b--3---3-3-------------------3----------|
g---------------------------------------|
d--0h2-------x3 then play --------------|
a--3------------------------------------|
E------3-3-------------------2----------|

these are the chords used, you can figure out the song structure by listening to the song.


Share "Open Your Eyes" by Margot And The Nuclear So And Sos


TOP 10 TABS

FRESH NEW TABS

ALL ARTISTS
artist wiki

mp3bear.com
song lyrics / contact us / privacy policy / tabspace toolbar
Copyright 2004 - 2014 TabSpace.com - All Rights Reserved.
song: open your eyes guitar tabs by margot and the nuclear so and sos

0.012