:: Guitar & Bass Tabs Make Home Page
A B C D E F G H I J K L M N O P Q R S T U V W X Y Z #

  for    

On TABSPACE
Info About This Tab
Artist: Evanescence
Tab Type: Guitar
Rate This Tab!
Band- Evanescence
Song- Orestes

Tuning- C# F# B E G# C#

Intro/Verse 

w/Chorus pedal - finger picking
|----------------------------------|
|-0-------0--------8--------8------|
|----7-------7---------9-------9---|
|------5-------5---------7-------7-|
|-7-------7--------8--------8------|
|----------------------------------| x10

Chorus

gtr.1
|------------------------------------------------|
|-----3---3--------3---3-------3---3-------3---3-|
|---4---4--------4---4-------4---4-------4---4---|
|-2---2------------------------------------------|
|--------------5---5-------3----3------3----3----|
|------------------------------------------------|

gtr.2
|-------------------------------------------------|
|-------------------------------------------------|
|-9-9-9-9-9-9/7-7-7-7-7-7/5-5-5-5-5-5-5-5-5-5-5-5-|
|-9-9-9-9-9-9/7-7-7-7-7-7/5-5-5-5-5-5-5-5-5-5-5-5-|
|-7-7-7-7-7-7/5-5-5-5-5-5/3-3-3-3-3-3-3-3-3-3-3-3-|
|-------------------------------------------------|

Verse 2- Same as Verse 1 x4

Bridge

|-------------------------------------------------|
|-16-15-13/12-12--15-15/12/10-10-10-10-10-10/8-8--|
|-------------------------------------------------|
|-------------------------------------------------|
|-------------------------------------------------|
|-------------------------------------------------|

Interlude

|-------------------------|
|-------------------------|
|-9-9-9-9-9-9/5-5-5-5-5-5-|
|-9-9-9-9-9-9/5-5-5-5-5-5-|
|-7-7-7-7-7-7/3-3-3-3-3-3-|
|-------------------------| x4

Gtr.1

|-------------------------------------------------|
|-------------------------------------------------|
|-9-9-9-9-9-9/7-7-7-7-7-7/5-5-5-5-5-5-5-5-5-5-5-5-|
|-9-9-9-9-9-9/7-7-7-7-7-7/5-5-5-5-5-5-5-5-5-5-5-5-|
|-7-7-7-7-7-7/5-5-5-5-5-5/3-3-3-3-3-3-3-3-3-3-3-3-|
|-------------------------------------------------|

|----------------------------------------------------|
|----------------------------------------------------|
|-9-9-9/12-12-12\7-7-7-7-7-7/5-5-5-5-5-5-5-5-5-5-5-5-|
|-9-9-9/12-12-12\7-7-7-7-7-7/5-5-5-5-5-5-5-5-5-5-5-5-|
|-7-7-7/10-10-10\5-5-5-5-5-5/3-3-3-3-3-3-3-3-3-3-3-3-|
|----------------------------------------------------|

Gtr.2

|-----------------------------------|
|-----5-----------------------------|
|-2h4---4-4p2--0-------0------0-0-2-|
|----------------2-2h4---4-2--------|
|-----------------------------------|
|-----------------------------------|

|-----------------------------------|
|-----5-----------------------------|
|-2h4---4-4p2--0-------0------0-0-0-|
|----------------2-2h4---4-2--------|
|-----------------------------------|
|-----------------------------------|

|---------------------------------|
|-------5-------------------------|
|-0-2h4---4-4p2--0-------0------0-|
|------------------2-2h4---4-2----|
|---------------------------------|
|---------------------------------|

|-------------------------------------------|
|-------------------------------------------|
|-------------------------------------------|
|--2-2-2-2p0-0-0-0--------------------------|
|-------------------4-4-4-4p2-2-2-2p0-------|
|-------------------------------------------|
|-------------------------------------------| 

Before solo

w/chorus pedal
|----------------------------------|
|-0-------0--------8--------8------|
|----7-------7---------9-------9---|
|------5-------5---------7-------7-|
|-7-------7--------8--------8------|
|----------------------------------| 

After solo

|-------|
|-------|
|-------|
|-6-7-9-|
|-6-7-9-|
|-4-5-7-|

Chorus 2

Gtr.1

|-------------------------------------------------|
|-------------------------------------------------|
|-9-9-9-9-9-9/7-7-7-7-7-7/5-5-5-5-5-5-5-5-5-5-5-5-|
|-9-9-9-9-9-9/7-7-7-7-7-7/5-5-5-5-5-5-5-5-5-5-5-5-|
|-7-7-7-7-7-7/5-5-5-5-5-5/3-3-3-3-3-3-3-3-3-3-3-3-|
|-------------------------------------------------|

|----------------------------------------------------|
|----------------------------------------------------|
|-9-9-9/12-12-12\7-7-7-7-7-7/5-5-5-5-5-5-5-5-5-5-5-5-|
|-9-9-9/12-12-12\7-7-7-7-7-7/5-5-5-5-5-5-5-5-5-5-5-5-|
|-7-7-7/10-10-10\5-5-5-5-5-5/3-3-3-3-3-3-3-3-3-3-3-3-|
|----------------------------------------------------|

Outro

Gtr.1

|-------------------------------------------------|
|-------------------------------------------------|
|-9-9-9-9-9-9/7-7-7-7-7-7/5-5-5-5-5-5-5-5-5-5-5-5-|
|-9-9-9-9-9-9/7-7-7-7-7-7/5-5-5-5-5-5-5-5-5-5-5-5-|
|-7-7-7-7-7-7/5-5-5-5-5-5/3-3-3-3-3-3-3-3-3-3-3-3-|
|-------------------------------------------------| 

|----------------------------------------------------|
|----------------------------------------------------|
|-9-9-9/12-12-12\7-7-7-7-7-7/5-5-5-5-5-5-5-5-5-5-5-5-|
|-9-9-9/12-12-12\7-7-7-7-7-7/5-5-5-5-5-5-5-5-5-5-5-5-|
|-7-7-7/10-10-10\5-5-5-5-5-5/3-3-3-3-3-3-3-3-3-3-3-3-|
|----------------------------------------------------|

Gtr.2

|-----------------------------------|
|-----5-----------------------------|
|-2h4---4-4p2--0-------0------0-0-2-|
|----------------2-2h4---4-2--------|
|-----------------------------------|
|-----------------------------------|

|-----------------------------------|
|-----5-----------------------------|
|-2h4---4-4p2--0-------0------0-0-0-|
|----------------2-2h4---4-2--------|
|-----------------------------------|
|-----------------------------------|

|-------------------------------|
|-------5-----------------------|
|-0-2h4---4-0----------0------0-|
|-------------0--2-2h4---4-2----|
|-------------------------------|
|-------------------------------|

|-------------------------------------------|
|-------------------------------------------|
|-------------------------------------------|
|--2-2-2-2p0-0-0-0--------------------------|
|-------------------4-4-4-4p2-2-2-2p0-------|
|-------------------------------------------|
|-------------------------------------------| 

End

|----|
|----|
|-9^-|
|-9^-|
|-7^-|
|----|
Bend down


Share "Orestes" by Evanescence


TOP 10 TABS

FRESH NEW TABS

ALL ARTISTS
artist wiki

mp3bear.com
song lyrics / contact us / privacy policy / tabspace toolbar
Copyright 2004 - 2014 TabSpace.com - All Rights Reserved.
song: orestes guitar tabs by evanescence

0.014