:: Guitar & Bass Tabs Make Home Page
A B C D E F G H I J K L M N O P Q R S T U V W X Y Z #

  for    

On TABSPACE
Info About This Tab
Artist: Margot And The Nuclear So And Sos
Tab Type: Guitar
Rate This Tab!
Standard Tuning

INTRO

e|--7---x----8---7-----|
b|--7---8----8---7-----|
g|--8---9----9---8-----|
d|--9---9---10---9-----|
a|--9---7---10---9-----|
e|--7---0----8---7-----|


VERSE (palm mute where needed)

e|--7-----------7------|
b|--7-------5---7------|
g|--8-------5---8------|
d|--9---2---5---9------|
a|--9---2---3---9------|
e|--7---0---x---7------|

CHORUS

e|--------------3------|
b|------5---7---3------|
g|------5---7---4------|
d|--2---5---7---5------|
a|--2---3---5---5------|
e|--0---x---x---3------|

FILL

e|--7---8---------------------x--------------------------|
b|--7---8---------------------x--------------------------|
g|--8---9---------------------x--------------------------|
d|--9--10---2--2--2--2--2--2--x--2--2--2--2--2--2----2---|
a|--9--10---2--2--2--2--2--2--x--2--2--2--2--2--2----2---|
e|--7---8---0--0--3--3--0--0--x--0--0--3--3--0--0----3---|


Share "Paper Kitten Nightmare" by Margot And The Nuclear So And Sos


TOP 10 TABS

FRESH NEW TABS

ALL ARTISTS
artist wiki

mp3bear.com
song lyrics / contact us / privacy policy / tabspace toolbar
Copyright 2004 - 2014 TabSpace.com - All Rights Reserved.
song: paper kitten nightmare guitar tabs by margot and the nuclear so and sos

0.02