:: Guitar & Bass Tabs Make Home Page
A B C D E F G H I J K L M N O P Q R S T U V W X Y Z #

  for    

On TABSPACE
Info About This Tab
Artist: Panic At The Disco
Tab Type: Bass
Rate This Tab!
-------------------------------------------------------------------------------
			     Pas de Cheval - Panic At The Disco
-------------------------------------------------------------------------------

Tabbed By: Valerie L.
e-mail: iloled@yahoo.com
Tuning: standard

Intro
G|-----------|
D|-----------|
A|----7~-----|
E|-----------|

Verse "Oh, little did she know."

G|---------------------------------------------|
D|--------6-9---9h11p9----9--7~-7h9p7-6-9------|
A|-7~-7-9--------------11----------------7-----|
E|------------7------------------------------7-|

G|------------------------------------------|
D|--------6-9---9h11p9----9--7~-7h9p7-6-9---|
A|-7~-7-9--------------11----------------7--|
E|------------7-----------------------------|

pre-chorus "so we'll just sing it for them.."
G|---------------------------------|--------------------------|
D|---------------------------------|--------------------------|
A|----------------7-7-----7-7--7-7-|--------------------------|
E|7-7-77-6-55-5-5----7-7-----------|7-7-77-6-5-5-5-3-55555555-|

chorus "it's the greatest thing..."
G|---------------------------------------|-----------------------------------|----------|
D|---------------------------------------|-----------------------------------|----------|
A|----------------------------------5/777|-----------------------------------|----------|
E|0000-333-555555555-5-5-3-2-0-00-0------|0000-333-555555555-77-55-0~-0000000|-77---0~--|

verse x2
G|---------------------------------------------|
D|--------6-9---9h11p9----9--7~-7h9p7-6-9------|
A|-7~-7-9--------------11----------------7-----|
E|------------7------------------------------7-|

pre-chorus x1

chorus
G|---------------------------------------|-----------------------------------|
D|---------------------------------------|-----------------------------------|
A|----------------------------------5/777|-----------------------------------|
E|0000-333-555555555-5-5-3-2-0-00-0------|0000-333-555555555-77-55-0~-0000000|

G|------------------------|
D|------------------------|
A|------------------------|
E|-77---000000000-55-5-55-|

bridge just follow the rhythm of the drums
G|--------------------------------------|
D|--------------------------------------|
A|----------------------------------7-7-|
E|0-0-00-00-7-7-77-77-5-5-55-55-0-0-----|

G|-------------------------------------------------------|
D|--------------------------------------------666-777777-|
A|-------------------------------------777-999-----------|
E|0-0-00-00-7-7-77-77-5-5-55-55-3-55-5-------------------|

outro chorus
G|---------------------------------------|
D|---------------------------------------|
A|----------------------------------5/777|
E|0000-333-555555555-5-5-3-2-0-00-0------|

G|----------------------------------|  |----------------| 
D|----------------------------------|  |----------------|
A|----------------------------------|  |----------------|
E|0000-333-555555555-77-55-0-0000000|  |77-55-0-0000000-| x2

G|-------------------------------|--------------12------|
D|-------------------------------|--------12h14----14~--|
A|-------------------------------|----------------------|
E|7777-5555--0~-0~--0~--0~--0~---|----------------------|


| /  slide up
| \  slide down


Share "Pas De Cheval" by Panic At The Disco


TOP 10 TABS

FRESH NEW TABS

ALL ARTISTS
artist wiki

mp3bear.com
song lyrics / contact us / privacy policy / tabspace toolbar
Copyright 2004 - 2014 TabSpace.com - All Rights Reserved.
song: pas de cheval bass tabs by panic at the disco

0.009