:: Guitar & Bass Tabs Make Home Page
A B C D E F G H I J K L M N O P Q R S T U V W X Y Z #

  for    

On TABSPACE
Info About This Tab
Artist: Misc Television
Tab Type: Bass
Difficulty: intermediate
Rate This Tab!
PIMP MY RIDE - Theme Song

Tabbed By : Jack L (skater710)
Tabbed On : 26/10/2008
e-mail : icecube37@gmail.com


I can't believe no one has tabbed this! Such a funky theme song!
Anyways, here's my take on it. 
Actually I'm pretty sure it's 100% now! Enjoy :D


G|-4-4-4-5-4-----|
D|-----------5---|
A|---------------|
E|---------------|

G|-----------------------------|
D|-----------------------------|
A|---/7-----------------5h7----|
E|-0-----0--3-4-5--------------|


G|----------------------7---8--|
D|-----------------------------|
A|---/7---------------5---6----|
E|-0-----0--7-6-5--------------|
                      s p s p


G|-----------------------------|
D|--------------------------7--|
A|---/7-------------/10-8-5----|
E|-0-----0--3-4-5--------------|


G|----------------------7---8--|
D|-----------------------------|
A|---/7---------------5---6----|
E|-0-----0--7-6-5--------------|
                      s p s p

G|--------444-55~---|
D|-22-555-----------|
A|------------------|
E|------------------|

Please rate and comment! Thanks.


Share "Pimp My Ride Theme" by Misc Television


TOP 10 TABS

FRESH NEW TABS

ALL ARTISTS
artist wiki

mp3bear.com
song lyrics / contact us / privacy policy / tabspace toolbar
Copyright 2004 - 2014 TabSpace.com - All Rights Reserved.
song: pimp my ride theme bass tabs by misc television

0.011