:: Guitar & Bass Tabs Make Home Page
A B C D E F G H I J K L M N O P Q R S T U V W X Y Z #

  for    

On TABSPACE
Info About This Tab
Artist: Daphne Loves Derby
Tab Type: Guitar
Rate This Tab!
---------------------------------------------------------------------------
		    Pollen and Salt- Daphne Loves Derby
---------------------------------------------------------------------------
Tabbed by: Sean
Email: wings217@hotmail.com

Tuning: EADGBe (standard)

Intro:
e|------------------------------------------------0-----------|
B|---0----0---0----0---3----3---3----3---1----1----1----------|
G|----0--------0--------2--------2--------2-------------------|
D|------------------------------------------------------------|
A|------2--------2--------0--------0---0----0---0----0--------|
E|-3--------3--------2--------2-------------------------------|

e ------------------------------------------------------------------0-----|
B ---1----1---2----2---3----3---3----3---0----0---0----0---0----0----0----|
G ----0--------0--------0--------0--------0--------0--------0-------------|
D ------------------------------------------------------------------------|
A -3----3---4----4---5----5---5----5---6----6---6----6---7----7---7----7--|
E ------------------------------------------------------------------------|

e ------------0-----------------0---------------------------|
B ---0----0------------3----3----3-------3----3----3----3---|
G ----0--------0--------0-----------------0---------0-------|
D ----------------------------------------------------------|
A -6----6---6----6---5----5---5----5---5----5----5----5-----|
E ----------------------------------------------------------|

“I have been holding my breath…”
e|------------------------------0-------------------------|
B|---1----1---2----2---3----3----3------3----3---3----3---|
G|----0--------0--------0----------------0--------0-------|
D|--------------------------------------------------------| x2
A|-3----3---4----4---5----5---5----5--5----5---5----5-----|
E|--------------------------------------------------------|

“and somewhere on coastlines unknown to me…”
e|------------------------------------------------0-------|
B|---1----1---2----2---3----3---0----0---0----0----0------|
G|----0--------0--------0--------0--------0---------------|
D|--------------------------------------------------------|
A|-3----3---4----4---5----5---6----6---7----7---7----7----|
E|--------------------------------------------------------|

e|------------0---------------------------------------------|
B|---0----0----0-------3----3---3----3---3----3---3----3----|
G|----0-----------------0--------0--------0--------0--------|
D|----------------------------------------------------------|
A|-6----6---6----6---5----5---5----5---5----5---5----5------|
E|----------------------------------------------------------|

“I would give my sweetest memories…”
e|------------------------------------------------------------------0--------|
B|---1----1---2----2---3----3---3----3---0----0---0----0---0----0----0-------|
G|----0--------0--------0--------0--------0--------0--------0----------------|
D|---------------------------------------------------------------------------|
A|-3----3---4----4---5----5---5----5---6----6---6----6---7----7---7----7-----|
E|---------------------------------------------------------------------------|

e|---------------------------------------5-----5---5----5---5----5---5----5--|
B|---0----0---0----0---3----3---3----3-----5--------5--------5--------5------|
G|----0--------0--------0--------0-------------------------------------------|
D|---------------------------------------------------------------------------|
A|-6----6---6----6---5----5---5----5---3-----3---3----3---3----3---3----3----|
E|---------------------------------------------------------------------------|

e|----2----2---2----2---2----2---2----2----5----5---5----5---5----5---5----5-|
B|-----1--------1--------1--------1---------5--------5--------5--------5-----|
G|---------------------------------------------------------------------------|
D|---------------------------------------------------------------------------|
A|--0----0---0----0---0----0---0----0----3----3---3----3---3----3---3----3---|
E|---------------------------------------------------------------------------|

e|----2----2---2----2---2----2---2----2--|
B|-----1--------1--------1--------1------|
G|---------------------------------------|
D|---------------------------------------|
A|--0----0---0----0---0----0---0----0----|
E|---------------------------------------|

Outro:
e|-0~----0~---3~--|
B|-2~----1~---0~--|
G|-0~----0~---0~--|
D|-4~----2~---0~--|
A|-5~----3~---2~--|
E|-0~----0~---3~--|


| /  slide up
| \  slide down
| h  hammer-on
| p  pull-off
| ~  vibrato
| +  harmonic
| x  Mute note
=============================================================================


Share "Pollen And Salt" by Daphne Loves Derby


TOP 10 TABS

FRESH NEW TABS

ALL ARTISTS
artist wiki

mp3bear.com
song lyrics / contact us / privacy policy / tabspace toolbar
Copyright 2004 - 2014 TabSpace.com - All Rights Reserved.
song: pollen and salt guitar tabs by daphne loves derby

0.011