:: Guitar & Bass Tabs Make Home Page
A B C D E F G H I J K L M N O P Q R S T U V W X Y Z #

  for    

On TABSPACE
Info About This Tab
Artist: Panda
Tab Type: Guitar
Rate This Tab!
Tabbed by: Mario Oscar
Email:x17_89@hotmail.com

Esta cancion se me hace que es del estilo de "ever so sweet" de "the early november" en
el coro o la de "cute without the e acoustic" de "Taking back sunday"(mi banda favorita)
pero esta bien cuerdas asi que si tu novia esta a punto de romperte el corazon dedicasela
gey. ojala los de mtv no sobresaturen panda en la tele.

.= palm muting (ahogar las cuerdas)

Tuning: Standard

 Versos:
e|-------------------------------------|
B|----0-------0-------0-4-0---0-2-0----|
G|---4-4-4---4-4-4---4-------4---------|
D|--2---2---2---2---2-------2----------|
A|-----------------0-------0-----------|
E|-0-------4---------------------------|

 Pre-coro("se que cosas que aclarar...) X3
e|-----0---------0------------------------|
B|----------------------------------------|
G|---6--6-6----6--6-6---------------------|
D|--6-6--6----6-6--6----------------------|
A|-4---------0----------------------------|
E|----------------------------------------|

 ..."Sigue igual"
e|-0------------------|
B|-0------------------|
G|-2------------------| dejalas sonar.
D|-2------------------|
A|-0------------------|
E|-x------------------|

 Coro(Saca tu los tiempos y ritmo):
e|-0--0--0--0---------------------------------------------|
B|-0--0--x--x---------------------------------------------|
G|-2--2--6--4---------------------------------------------|
D|-2--2--6--4---------------------------------------------|
A|-0--1--4--2---------------------------------------------|
E|-------x--x---------------------------------------------|

 Para acabar el primer coro en "no me dejes dudando..."
e|-------------------------------------------------------|
B|-------------------------------------------------------|
G|-22222222----------------------------------------------|
D|-22222222----------------------------------------------|
A|-00000000----------------------------------------------|
E|-........----------------------------------------------|

Despues :
verso
pre-coro
coro(tambien en el "no me dejes dudando")

Outro:
e|----------00000000-0-------------------------|
B|----------00000000-0-------------------------|
G|-22222222-22222222-1-------------------------|
D|-22222222-22222222-2-------------------------|
A|-00000000-00000000-2-------------------------|
E|-........----------0-------------------------|


Es todo...pude tener errores la saque en 15 minutos oigan tambien thermo estan chidos
 Saludos a todo mexico en especial a shadai y a los omertos.


Share "Porque Todavia Podemos Decir Una Vez Mas" by Panda


TOP 10 TABS

FRESH NEW TABS

ALL ARTISTS
artist wiki

mp3bear.com
song lyrics / contact us / privacy policy / tabspace toolbar
Copyright 2004 - 2014 TabSpace.com - All Rights Reserved.
song: porque todavia podemos decir una vez mas guitar tabs by panda

0.012