:: Guitar & Bass Tabs Make Home Page
A B C D E F G H I J K L M N O P Q R S T U V W X Y Z #

  for    

On TABSPACE
Info About This Tab
Artist: Misc Television
Tab Type: Guitar
Rate This Tab!
this is the theme from postman pat any questions email me at themeanmc@hotmail.com
                                                                          
E||-----------------------|-----------------------|----------------------|
B||-------2---------2h-3--|--3/-5-------3----0----|--2----3---------0----|
G||-----------------------|-------------4----1----|--2----4---------1----|
D||-------2------------4--|--------6---------2----|-------2---------2----|
A||--0--------------------|--0--------------------|--0-------------------|
E||------------0----------|-------------0---------|------------0---------|


                                                                       
----------------------||-------------2---------|------------2---------|
--2-------------------||---2----5--------------|--2----5--------------|
--2-------------------||*----------------------|----------------------|
----------------------||*-------2---------2----|-------2---------2----|
--0-------------------||---0-------------------|--0-------------------|
-------0----2----4----||-------------0---------|------------0---------|


                                                             
------------2-------5--|-----4-------|--2-------------------|
--2----5---------------|--------5----|-------2---------2----|
-----------------------|-------------|-------2---------2----|
-------2---------2-----|--------2----|-------4---------4----|
--0--------------------|--0----------|------------4---------|
------------0----------|-------------|--2-------------------|


                                                                      
----------------------|-------0----2---------|-----------------------|
-------2--------------|--3--------------3----|--2-------0------------|
-------2--------------|----------------------|------------------1----|
-------4--------------|-------4---------4----|-------2----------2----|
------------4----0----|--2-------------------|-----------------------|
--2-------------------|------------2---------|--0----------0---------|


                                                                        
-------0----2---------|-------------------------|-------0----2---------|
--3--------------3----|--0h-2-----0-------------|--3--------------3----|
----------------------|-----------------1-------|----------------------|
-------4---------4----|--------2-----------2----|-------4---------4----|
--2-------------------|-------------------------|--2-------------------|
------------2---------|--0-----------0----------|------------2---------|


                                                                           
------------------------|------------------------|-----------------------||
--2----0----------------|-------2-------------2--|-----------------------||
------------2h-1-----2--|-------2-------2--------|----------------------*||
-------2----------2-----|-------2----------2-----|----------------------*||
------------------------|--0---------------------|--0--------------------||
--0---------0-----------|------------0-----------|-------0----2----4-----||


                                                                     
----------------------|--2---------2----3----|--4--------------4----|
----------------------|-------3--------------|-------0--------------|
----------------------|----------------------|-------1---------1----|
----------------------|-------4---------4----|--2-------------------|
--0---------0----1----|--2-------------------|------------2---------|
-------4--------------|------------2---------|----------------------|


                                                                     
--0-------------------|----------------------|-----------------2----|
------------2---------|----------------------|--3----2----3---------|
-------1---------1----|--2-------------------|----------------------|
-------2---------2----|----------------------|-------4---------4----|
--0-------------------|-----------------0----|--2-------------------|
------------0---------|--2----0----2---------|------------2---------|


                                                                 
--0-------------------|--------------------|--------------------|
------------3----0----|--2--------3--------|--4--------5--------|
-------1--------------|--------------------|--------------------|
-------2---------2----|--------------------|--------------------|
------------2---------|--0--------2--------|--3--------4--------|
--0-------------------|--------------------|--------------------|


                                                                      
--2-------------------|----------------------|--5----5----4/-5--4----|
-------3--------------|--2-------------------|-----------------------|
-------2--------------|-------4---------4----|-----------------------|
--0-------------------|-------3---------3----|-------4----------3----|
------------2----3----|--4-------------------|------------4----------|
----------------------|------------4---------|--2--------------------|


                                                                 
--2--------------0----|-------------------|--2------------------|
-------2----2---------|--3----------------|--3-------------7----|
-------2----2---------|--2----------------|--2-------------7----|
-------4--------------|--4----------------|--4-------------7----|
----------------------|--2----------------|--2------------------|
--2---------2---------|-------------------|-----------7---------|


                                                                     
--4----5----2----4----|--0-------------------|------------2---------|
----------------------|----------------------|--2----5--------------|
----------------------|----------------------|----------------------|
--2---------0---------|----------------------|-------2---------2----|
----------------------|--2-------------------|--0-------------------|
----------------------|-------0----2----4----|------------0---------|


                                                              
------------2----------|------------2-------5--|-----4-------|
--2----5------------1/-|--2----5---------------|--------5----|
--------------------1/-|--2--------------------|-------------|
-------2---------2-----|-------2---------2-----|--------2----|
--0--------------------|--0--------------------|--0----------|
------------0----------|------------0----------|-------------|


                                                                     
--2-------------------|----------------------|-------0----2---------|
-------2---------2----|-------2--------------|--3--------------3----|
-------2---------2----|-------2--------------|----------------------|
-------4---------4----|-------4--------------|-------4---------4----|
------------4---------|------------4----3----|--2-------------------|
--2-------------------|--2-------------------|------------2---------|


                                                                         
-----------------------|-------0----2---------|-------------------------|
--2-------0------------|--3--------------3----|--0h-2-----0-------------|
------------------1----|----------------------|-----------------1-------|
-------2----------2----|-------4---------4----|--------2-----------2----|
-----------------------|--2-------------------|-------------------------|
--0----------0---------|------------2---------|--0-----------0----------|


                                                                         
-------0----2---------|------------------------|------------------------|
--3--------------3----|--2----0----------------|-------2-------------2--|
----------------------|------------2h-1-----2--|-------2-------2--------|
-------4---------4----|-------2----------2-----|-------2----------2-----|
--2-------------------|--0---------------------|--0---------------------|
------------2---------|------------0-----------|------------0-----------|


                                                                       
----------------------|-------0----2---------|------------------------|
-------2--------------|--3--------------3----|--2----0----------------|
-------2--------------|----------------------|------------2h-1-----2--|
-------2--------------|-------4---------4----|-------2----------2-----|
--0--------------0----|--2-------------------|------------------------|
------------0---------|------------2---------|--0---------0-----------|


                                                                       
------------------------|----------------------|-------0----2---------|
-------2-------------2--|-------2--------------|--3--------------3----|
-------2-------2--------|-------2--------------|----------------------|
-------2----------2-----|-------2--------------|----------------------|
--0---------------------|--0--------------0----|--2---------2---------|
------------0-----------|------------0---------|----------------------|


                                                                           
------------------------|------------------------|-------------12--------||
--2----0----------------|-------0h-2-----2h-0----|--0h-2-------12--------||
------------2h-1-----2--|------------------------|--2----------11--------||
------------------2-----|-------2-----------2----|-------------11--------||
------------------------|--0---------------------|--0----------0---------||
--0---------0-----------|-------------0----------|--------0--------------||





Share "Postman Pat Theme" by Misc Television


TOP 10 TABS

FRESH NEW TABS

ALL ARTISTS
artist wiki

mp3bear.com
song lyrics / contact us / privacy policy / tabspace toolbar
Copyright 2004 - 2014 TabSpace.com - All Rights Reserved.
song: postman pat theme guitar tabs by misc television

0.02