:: Guitar & Bass Tabs Make Home Page
A B C D E F G H I J K L M N O P Q R S T U V W X Y Z #

  for    

On TABSPACE
Info About This Tab
Artist: Misc Television
Tab Type: Guitar
Difficulty: intermediate
Rate This Tab!
-Power Rangers Theme-

Transcribed by: epiman20

Riff 1:

e------------------------------|
B------------------------------|
G--9-9-x-9-x-9-x-9-x-9-10-10---|
D--9-9-x-9-x-9-x-9-x-9-10-10---|
A--7-7-x-7-x-7-x-7-x-7-8--8----|
E------------------------------|   X4


Riff 2:

e------------------------------|
B------------------------------|
G--12T9p5-12T9p5-12T9p5-12T9p5-|
D------------------------------|
A------------------------------|
E------------------------------|

e----------------------------------|
B----------------------------------|
G--14T11p7-14T11p7-14T11p7-14T11p7-|
D----------------------------------|
A----------------------------------|
E----------------------------------|

e----------------------------------|
B----------------------------------|
G--15T11p7-15T11p7-15T11p7-15T11p7-|
D----------------------------------|
A----------------------------------|
E----------------------------------|

e----------------------------------|
B----------------------------------|
G--16T12p9-16T12p9-16T12p9-16T12p9-|
D----------------------------------|
A----------------------------------|
E----------------------------------|

e----------------------------------|
B----------------------------------|
G--17T12p9-17T12p9-17T12p9-17T12p9-|
D----------------------------------|
A----------------------------------|
E----------------------------------|

e----------------------------------|
B----------------------------------|
G--17T12p9-17T12p9-17T12p9-17T12p9-|
D----------------------------------|
A----------------------------------|
E----------------------------------|

e----------------------------------|
B----------------------------------|
G--16~~~~~~~~~~~~~~~~~~~~~~~~~~~~--|
D----------------------------------|
A----------------------------------|
E----------------------------------|

Riff 3:
e----------------------------------|
B-------------------12-10----------|
G--9-9-7-9-12-9~~-9-------11-12----|
D----------------------------------|
A----------------------------------|
E----------------------------------| X2

e----------------------------------|
B----------------------------------|
G--12-12-12-12-12-12~~~~~~~~~~~~~--|
D----------------------------------|
A----------------------------------|
E----------------------------------|

Riff 4:
e----------------------------------|
B----------------------------------|
G----------------------------------|
D--2--2--2-2--2-2--2-2--2-2--------|
A--2--2--2-2--2-2--2-2--2-2--------|
E--0--0--0-0--0-0--0-0--0-0--------|

e----------------------------------|
B----------------------------------|
G----------------------------------|
D--2-3-4-5-6-7-8-9-----------------|
A--2-3-4-5-6-7-8-9-----------------|
E--0-1-2-3-4-5-6-7-----------------|

Riff 5:
e----------------------------------|
B----12-10-----------12-10---------|
G--9-------11-12---9-------12-11---|
D----------------------------------|
A----------------------------------|
E----------------------------------| X2

Riff 6:
e----------------------------------|
B----------------------------------|
G--17T12p9-17T12p9-17T12p9-17T12p9-|
D----------------------------------|
A----------------------------------|
E----------------------------------|

e----------------------------------|
B----------------------------------|
G--17T12p9-17T12p9-17T12p9-17T12p9-|
D----------------------------------|
A----------------------------------|
E----------------------------------|

e----------------------------------|
B----------------------------------|
G--16~~~~~~~~~~~~~~~~~~~~~~~~~~~~--|
D----------------------------------|
A----------------------------------|
E----------------------------------|


And that's all she wrote, until next time.


Share "Power Rangers Theme" by Misc Television


TOP 10 TABS

FRESH NEW TABS

ALL ARTISTS
artist wiki

mp3bear.com
song lyrics / contact us / privacy policy / tabspace toolbar
Copyright 2004 - 2014 TabSpace.com - All Rights Reserved.
song: power rangers theme guitar tabs by misc television

0.01