:: Guitar & Bass Tabs Make Home Page
A B C D E F G H I J K L M N O P Q R S T U V W X Y Z #

  for    

On TABSPACE
Info About This Tab
Artist: Electric Six
Tab Type: Bass
Difficulty: novice
Rate This Tab!
   Intro
 G|-------------------------------|
 D|-------------------------------|
 A|-------------------------------|
 E|-1~----3~----6~----3~----6-1-1-|

     Verse
 G|-------------------------------|  x2
 D|-------------------------------|
 A|-------------------------------|
 E|-1~----3~----6~----3~----6-1-1-|
     
      Chorus    
 G|---------------------------------------------------------------|
 D|---------------------------------------------------------------|
 A|-1--1-----------1-1-1-----1-1-1----------------------3-3-3-3---|
 E|------1--1-1-1--------1-1-------1-1---3--3-3-3-3-3-----------1-|


Share "Radio Ga Ga" by Electric Six


TOP 10 TABS

FRESH NEW TABS

ALL ARTISTS
artist wiki

mp3bear.com
song lyrics / contact us / privacy policy / tabspace toolbar
Copyright 2004 - 2014 TabSpace.com - All Rights Reserved.
song: radio ga ga bass tabs by electric six

0.012