:: Guitar & Bass Tabs Make Home Page
A B C D E F G H I J K L M N O P Q R S T U V W X Y Z #

  for    

On TABSPACE
Info About This Tab
Artist: 65daysofstatic
Tab Type: Bass
Difficulty: novice
Rate This Tab!
-------------------------------------------------------------------------------
			     Radio Protector - 65daysofstatic
-------------------------------------------------------------------------------
This song is great to play along with.
Tabbed By : Tim West
e-mail: tim17west@hotmail.com

Tuning: Standard

1:04 - 1:46  Repeated X4
G|---------------------------------------------------------------------------|
D|---------------------------------------------------------------------------|
A|---------3---5--10--9------------------------------------------------------|
E|-0--2--3---5---------------------------------------------------------------|

1:47 - 2:07  Repeated X2
G|---------------------------------------------------------------------------|
D|---------------------------------------------------------------------------|
A|-------------------------3-3-3-3---------5-5-5-5-10-10-10-10-10-99999999\--|
E|-0-0-0-0-2-2-2-2-3-3-3-3---------5-5-5-5-----------------------------------|

2:08
G|---------------------------------------------------------------------------|
D|---------------------------------------------------------------------------|
A|---------------------------------------------------------------------------|
E|-0~------------------------------------------------------------------------|

2:57 - 3:19  Repeated X2
G|---------------------------------------------------------------------------|
D|---------------------------------------------------------------------------|
A|----------------------3--3-3--------5--5-5-10-10-10-9--9-9-----------------|
E|-0--0-0-2--2-2-3--3-3--------5--5-5----------------------------------------|

3:20 - 4:25  Repeated X6
G|---------------------------------------------------------------------------|
D|---------------------------------------------------------------------------|
A|-------------------------3-3-3-3---------5-5-5-5-10-10-10-10-10-99999999\--|
E|-0-0-0-0-2-2-2-2-3-3-3-3---------5-5-5-5-----------------------------------|

4:26 - 5:09  Repeated X4
G|---------------------------------------------------------------------------|
D|---------------------------------------------------------------------------|
A|---------3---5-------------------------------------------------------------|
E|-0--2--3---5----3--2-------------------------------------------------------|

5:10 
G|---------------------------------------------------------------------------|
D|---------------------------------------------------------------------------|
A|---------------------------------------------------------------------------|
E|-0~------------------------------------------------------------------------|
                                             D|--------------------|
It can also be played in Drop D and have and A|---instead of a--5--|
                                             D|-0------------------|
Have fun.

| /  slide up
| \  slide down
| h  hammer-on
| p  pull-off
| ~  vibrato
| +  harmonic
| x  Mute note
===============================================================================


Share "Radio Protector" by 65daysofstatic


TOP 10 TABS

FRESH NEW TABS

ALL ARTISTS
artist wiki

mp3bear.com
song lyrics / contact us / privacy policy / tabspace toolbar
Copyright 2004 - 2014 TabSpace.com - All Rights Reserved.
song: radio protector bass tabs by 65daysofstatic

0.008